Guitaretab - guitar tabs
Song name
# A B C D E F G H I J K L M N O P Q R S T U V W X Y Z

Ministry - Last Sucker tab

E--------------------------------------------------------------------------|
B--------------------------------------------------------------------------|
G--------------------------------------------------------------------------|
D-------3-3--2-----------------------3-3--2--------------------------------|
A-------1-1--0-2---------------------1-1--0-2------------------------------|
E--0-0---------0---0-2-0-0-2-0---0-0--------0---0-2-3-5-3-2-3--------------|

E--------------------------------------------------------------------------|
B--------------------------------------------------------------------------|
G--------------------------------------------------------------------------|
D-------3-3--2-------------------------------3-3--2------------------------|
A-------1-1--0-2-----------------------------1-1--0-2----------------------|
E--0-0---------0--0-0-2-0-0-0-0-2-0-0---0-0---------0---0-2-3-5-3-2-3------|
[ Tab from: http://www.guitaretab.com/m/ministry/118054.html ]
Related for Last Sucker tab
Last Sucker chords by Ministry