Song name
# A B C D E F G H I J K L M N O P Q R S T U V W X Y Z

Ministry - Scarecrow tab

Intro, Verse
|--------------------------------|-------------------------------|
|--------------------------------|-------------------------------|
|--------------------------------|-------------------------------|
|--------------------------------|-------------------------------|
|--3-3-3-3-3--3-3-3-3-3-3-6-3-3--|--3-3-3-3-3--3-3-3-3-3-3-6-----|
|--1-1-1-1-1--1-1-1-1-1-1-4-1-1--|--1-1-1-1-1--1-1-1-1-1-1-4-----|

Second Guitar sounds like:
(I'm not sure in it)
|------------------------------|-----------------------------|
|----------------1---0----1----|----------------1-----0------|
|--5---------------------------|-----------------------------|
|--3---------------------------|-----------------------------|
|------------------------------|-----------------------------|
|------------------------------|-----------------------------|

Chord:
|----------------------|
|----------------------|
|----------------------|
|------------4---------|
|--3----2--------------|
|-----------------1----|

Chorus:
|--------------------|
|--------------------|
|--------------------|
|--5-----------------|
|--3--------6--------|
|-----------4--------|

Second Guitar Chorus:
|--8-------------------|
|----------------------|
|----------------------|
|----------------------|
|----------------------|
|----------------------|

Interlude:
|----------------------|
|----------------------|
|----------------------|
|--8-------------------|
|--6-------------------|
|----------------------|

Tap to rate this tab
# A B C D E F G H I J K L M N O P Q R S T U V W X Y Z