Song name
# A B C D E F G H I J K L M N O P Q R S T U V W X Y Z

Ministry - Animosity tab

Song: Animosity
Band: Ministry
Album: Animositisomina
Tuning: drop d 1/2 step down (Db Ab Db Gb Bb Eb)
Notation:
. = palm mute
/ = slide up


I dont know the post-chorus or the solo :)


Intro

Eb|-------------------|
Bb|-------------------|
Gb|-------------------|
Db|-------------------|  guitar 1 (heavy distortion)
Ab|-0-0-0-0-0-0-0-0-0-|
Db|-0-0-0-0-0-0-0-0-0-|
    . . . . . . . . .

Eb|----------|
Bb|----------|
Gb|----------|
Db|----------|           guitar 2
Ab|-/6-55555-|
Db|----------|



Verse

Eb|----------------------------------------------------------------|
Bb|----------------------------------------------------------------|
Gb|----------------------------------------------------------------|
Db|-3-0-0-1--0-3-0-0-1--0-5-5-5-5-6-3-0-0-1--0-3-0-0-1-------------|
Ab|-3-0-0-1--0-3-0-0-1--0-5-5-5-5-6-3-0-0-1--0-3-0-0-1-0-0-0-0-0-0-|
Db|-3-0-0-1--0-3-0-0-1--0-5-5-5-5-6-3-0-0-1--0-3-0-0-1-0-0-0-0-0-0-|
                                                       . . . . . .
Tap to rate this tab
 
# A B C D E F G H I J K L M N O P Q R S T U V W X Y Z