Song name
# A B C D E F G H I J K L M N O P Q R S T U V W X Y Z

Ministry - New World Order tab

-------------------------------------------------------------------------------
			   New World Order - Ministry
-------------------------------------------------------------------------------

Tabbed by: Quam
Email: Orchidband@ymail.com

Tuning: D G C F A D


Intro riff A: All triplets

---------------------------------------------------------|
---------------------------------------------------------|
---------------------------------------------------------|
---------------------------------------------------------|
-222222222222222222222222222222-2------------------------|
-000000000000000000000000000000-0------------------------|
 ..............................


Riff B: The Chugging Riff
-------------------------------------------------------|
-------------------------------------------------------|
-------------------------------------------------------|
-------------------------------------------------------|
-2-2-2-2-2-2-2-2-2-2-2-2-2-2---------------------------|
-0-0-0-0-0-0-0-0-0-0-0-0-0-0---------------------------|
 . . . . . . . . . . . . . .


Main riff
-------------------------------------------------------|
-------------------------------------------------------|
-------------------------------------------------------|
-5--2--------------------------------------------------|
-5--2--------------------------------------------------|
-3--0--000-0-0-0-0-0-0-0-0-0-0-0-0-0-0-0---------------|

| /  slide up
| \  slide down
| h  hammer-on
| p  pull-off
| ~  vibrato
| +  harmonic
| x  Mute note

Notes:

Thats all of it. It repeats itself a couple of times.
Its not that hard of a song to learn, but takes some chops
to play the entire song.
===============================================================================
Tap to rate this tab
# A B C D E F G H I J K L M N O P Q R S T U V W X Y Z