Song name
# A B C D E F G H I J K L M N O P Q R S T U V W X Y Z

Ministry - Senor Peligro tab

-------------------------------------------------------------------------------
			     SE—OR PELIGRO - Ministry
-------------------------------------------------------------------------------
Tabbed by: flyinghawk

Tuning: D A G D B e  (sixth string tune down to D)

Great song by a great band, but there are not a lot of tabs of recent ministry albums,
so Iím taking the time to tab some of the songs out.

I decided to make this tab because the other tab of this song here is wrong in tuning 
and in notes.

If you are looking up this tab, keep rockiní. ¨\m/

Intro A
e|-----------------------------------------------------------------------------|
B|-----------------------------------------------------------------------------|
G|-----------------------------------------------------------------------------|
D|-3-0|--------------------------------------------------------------5-4-3-----|
A|-3-0|--------------------------------------------------------------5-4-3-----|
D|-3-0|0-0-0-0-0-8-0-0-0-7-0-0-0-5-0-3-0-0-0-0-0-0-0-8-0-0-0-7-0-0-0-5-4-3-0---|
        |   Fast tremolo picking, palm muted optional               |

e|------------------------------------------------------------------------------|
B|------------------------------------------------------------------------------|
G|------------------------------------------------------------------------------|
D|------------------------------------------------------------------------------|
A|------------------------------------------------------------------------------|
D|--0-0-0-0-0-8-0-0-0-7-0-0-0-5-0-3-0-0-0-0-0-8-0-0-9p6h9p6h9p6h9h12p9h12p9h12--|
                                               Fast hammer ons/ pull offs

You do this hammer-on/pul-off part above by placing your left hand index finger in the
6th fret and then hammering on with your right hand index finger by hitting it on the 9th
fret; after that place your pinkie on the 9th fret and hammer on the 12th fret with your 
right hand index finger. I know this may sound a little confusing, but just try it to
see if you like it this way or you could think of some other way of doing the hammer-ons yourself.

[Play intro A 2x]

Intro B
e|------------------------------------------------------------------------------|
B|------------------------------------------------------------------------------|
G|------------------------------------------------------------------------------|
D|------------------------------------------------------------------------------|
A|-----------10h11-------8h10-------7h8-7---------10h11-------8h10-8---7---4----|
D|-0--0-0-0-0-------0-0-0------0-0-0-------0-0-0-0-------0-0-0------------------|
   Fast tremolo picking with fast hammer-ons

You can also play this part like this:
e|------------------------------------------------------------------------------|
B|------------------------------------------------------------------------------|
G|------------------------------------------------------------------------------|
D|-----------5h6----------3h5-------2h3-2----------5h6---------3h5--3--2--------|
A|-------------------------------------------------------------------------4----|
D|-0--0-0-0-0-------0-0-0------0-0-0-------0-0-0-0-------0-0-0------------------|

[Play intro B 2x]



Main Riff
e|---------------------------------------------------------------------------|
B|---------------------------------------------------------------------------|
G|---------------------------------------------------------------------------|
D|-0------------0------------1---4---3---6-----------------------------------|
A|-0----0-0-0-0-0----0-0-0-0-1---4---3---6-----------------------------------|
D|-0----0-0-0-0-0----0-0-0-0-1---4---3---6-----------------------------------|
        P P P P      P P P P

[Play Main Riff 8x]

[Play Intro B 4x, but at the end of the second time play the fast hammer-on/pull-of
section that is played at the end of Intro A]

[Play Main Riff 8x]

Bridge A
e|-------------------------------------------------------------------------------|
B|-------------------------------------------------------------------------------|
G|-------------------------------------------------------------------------------|
D|-0--/6--5--3--0--/6--5--3--1--/6--5--1--3--6--5--8-----------------------------|
A|-0--/6--5--3--0--/6--5--3--1--/6--5--1--3--6--5--8-----------------------------|
D|-0--/6--5--3--0--/6--5--3--1--/6--5--1--3--6--5--8-----------------------------|

[Play Bridge A 4x]

Bridge B
e|--------------------------12---12----12----12------------------------------|
B|--------------------------16b--16b---16b---16b-----------------------------|
G|---------------------------------------------------------------------------|
D|--0-0-----0-0------0-0-----------------------------------------------------|
A|--0-0-----0-0------0-0-----------------------------------------------------|
D|--0-0-----0-0------0-0-----------------------------------------------------|

(Heavy Palm muting in Bridge B & Bridge C)
Bridge C
e|-------------------------------12---12----12----12-------------------------|
B|-------------------------------16b--16b---16b---16b------------------------|
G|---------------------------------------------------------------------------|
D|-0-0-0-0--0--0-0-0-0-0--0--0-----------------------------------------------|
A|-0-0-0-0--0--0-0-0-0-0--0--0-----------------------------------------------|
D|-0-0-0-0--0--0-0-0-0-0--0--0-----------------------------------------------|

[Play Bridge C 3x]

[Play Main Riff 6x]

[Play Intro A 2x]

[Play Intro B 2x]


There are some variations throughout the song of some parts, but mainly everything is
here (except the solo which is hard to tab out because of the the FX)



************************************

| /   slide up
| \   slide down
| h   hammer-on
| p   pull-off
| ~   vibrato
| +   harmonic
| x   Mute note
| b   Bend
| pb  Pre-bend
| br  Bend release
| pbr Pre-bend release
| brb Bend release bend
| P Palm mute

************************************
Tap to rate this tab
# A B C D E F G H I J K L M N O P Q R S T U V W X Y Z