Song name
# A B C D E F G H I J K L M N O P Q R S T U V W X Y Z

Ministry - Paisley tab

-------------------------------------------------------------------------------
                              Ministry - Paisley
-------------------------------------------------------------------------------
Album : Escape from L.A (1996)
Tempo : 88
E-mail: gwendal.mollo@orange.fr
Tabbed by: newg

Check my Guitar pro 6 tab

Tab is Guitar 1 and the chords (xx5) for the second guitar
Let Ring all the notes/chords for both guitars

Intro
    E5                                    E5                   G5       \
e|-----------------0--------------|     -----------------0------------   |
B|--------------0-----0-----0-----|     --------------0-----0---------   |
G|-----------3-----------3--------|     -----------3-----------3--0---   |
D|--------------------------------|     ------------------------------   |
A|--------------------------------|     ------------------------------   |x3
E|----0---------------------------|x3   ---0--------------------------   |
                                                                        /

    E5                                     G5
-----------------0----------------|     ---3--------------------------|
--------------0-----0-----0-------|     ---0--------------------------|
-----------3-----------3----------|     ---0--------- Let Ring -------|
----------------------------------|     ---0--------------------------|
----------------------------------|     ---2--------------------------|
----0-----------------------------|x3   ---3--------------------------|



Verse 1
    E5                                    G5                             \
-----------------0----------------|     -----------------0------------   |
--------------0-----0-----0-------|     --------------0-----0---------   |
-----------3-----------3----------|     -----------3-----------3--0---   |
----------------------------------|     ------------------------------   |
----------------------------------|     ------------------------------   |x2
----0-----------------------------|x2   --3---------------------------x2 |
                                                                        /

    E5                                    G5
-----------------0----------------|     -----------------0------------|
--------------0-----0-----0-------|     --------------0-----0---------|
-----------3-----------3----------|     -----------3-----------3--0---|
----------------------------------|     ------------------------------|
----------------------------------|     ------------------------------|
----0-----------------------------|x2   --3---------------------------|

   G5
---3--------------------------|
---0--------------------------|
---0----------- Let Ring -----|
---0--------------------------|
---2--------------------------|
---3--------------------------|


Verse 2 & 3
    E5                                    G5
-----------------0----------------|     -----------------0------------|
--------------0-----0-----0-------|     --------------0-----0---------|
-----------3-----------3----------|     -----------3-----------3--0---|
----------------------------------|     ------------------------------|
----------------------------------|     ------------------------------|
----0-----------------------------|x2   --3---------------------------|x2


    E5                                    G5
-----------------0----------------|     -----------------0------------|
--------------0-----0-----0-------|     --------------0-----0---------|
-----------3-----------3----------|     -----------3-----------3--0---|
----------------------------------|     ------------------------------|
----------------------------------|     ------------------------------|
----0-----------------------------|x2   --3---------------------------|


    G5                                    F#5
-----------------0----------------|     -----------------0------------|
--------------0-----0-------------|     --------------0-----0---------|
-----------4-----------4----------|     -----------3-----------3------|
-----5--------------------5-------|     ---4----------------------4---|
----------------------------------|     ------------------------------|
----------------------------------|     ------------------------------|



    F5
-----------------0----------------|-0---|
--------------0-----0-------------|-0---|    Let Ring
-----------2-----------2----------|-2---|
-----3----------------------------|-3---|
----------------------------------|-----|
----------------------------------|-----|

Reapeat Intro
    E5                                    E5                   G5
-----------------0----------------|     -----------------0------------|
--------------0-----0-----0-------|     --------------0-----0---------|
-----------3-----------3----------|     -----------3-----------3--0---|
----------------------------------|     ------------------------------|
----------------------------------|     ------------------------------|
----0-----------------------------|x3   ---0--------------------------|


    E5                                     G5
-----------------0----------------|     ---3--------------------------|
--------------0-----0-----0-------|     ---0--------------------------|
-----------3-----------3----------|     ---0--------- Let Ring -------|
----------------------------------|     ---0--------------------------|
----------------------------------|     ---2--------------------------|
----0-----------------------------|x3   ---3--------------------------|


Verse 3


Bridge
    D5                                    C5
-----------------0----------------|     -----------------0------------|
--------------0-----0-----0-------|     --------------0-----0------0--|
-----------3-----------3----------|     -----------3-----------3------|
----0-----------------------------|     ------------------------------|
----------------------------------|     ---3--------------------------|
----------------------------------|x2   ------------------------------|x2

    B5                                    C5
-----------------0----------------|     -----------------0------------|
--------------0-----0-----0-------|     --------------0-----0------0--|
-----------3-----------3----------|     -----------3-----------3------|
----------------------------------|     ------------------------------|
----2-----------------------------|     ---3--------------------------|
----------------------------------|x2   ------------------------------|x2

    A5                                    E5
-----------------0----------------|     -----------------0------------|
--------------0-----0-----0-------|     --------------0-----0------0--|
-----------3-----------3----------|     -----------3-----------3------|
----------------------------------|     ------------------------------|
----0-----------------------------|     ------------------------------|
----------------------------------|x2   --0---------------------------|x2

    F#5                                    F5
-----------------0----------------|     -----------------0------------|
--------------0-----0-----0-------|     --------------0-----0------0--|
-----------3-----------3----------|     -----------2-----------0------|
----4-----------------------------|     ---3--------------------------|
----------------------------------|     ------------------------------|
----------------------------------|x2   ------------------------------|

  F5
--0---|
--0---|    Let Ring
--2---|
--3---|
------|
------|

Outro

    E5                                    F#5
-----------------0----------------|     -----------------0------------|
--------------0-----0-----0-------|     --------------0-----0-----0---|
-----------3-----------3----------|     -----------3-----------3------|
----------------------------------|     ---4--------------------------|
----------------------------------|     ------------------------------|
----0-----------------------------|x2   ------------------------------|

  G5                               \
-----------------0------------      |
--------------0-----0-----0---      |
-----------3-----------3------      |
------------------------------      |     x3
------------------------------      |
--3---------------------------      |
                                    /


    E5                                    F#5
-----------------0----------------|     -----------------0------------|
--------------0-----0-----0-------|     --------------0-----0-----0---|
-----------3-----------3----------|     -----------3-----------3------|
----------------------------------|     ---4--------------------------|
----------------------------------|     ------------------------------|
----0-----------------------------|x2   ------------------------------|

  F5
-----------------0----------|
--------------0-------------|
-----------2----------------|    Let Ring
---3------------------------|
----------------------------|
----------------------------|


Intro
Verse 1
Verse 2
Riff Intro
Verse 3
Bridge
Outro


Lyrics :
reepy eyes conspire to reduce the point of view
Closing all the windows  doors in view


Greeting on the setting suns, my breath lies
Watching with indifference as clouds collide
If Paisley could fly

Theorize and justify the one reality
Someone finds an answer, but it's not for me
Do clouds have eyes? If Paisley could fly
Tap to rate this tab
 
# A B C D E F G H I J K L M N O P Q R S T U V W X Y Z