Song name
# A B C D E F G H I J K L M N O P Q R S T U V W X Y Z

Ministry - Flashback tab

Ministry - Flashback
From "The Land of Rape and Honey"
As tabbed by Zephie

Standard tuning:
e]---|
B]---|
G]---|
D]---|
A]---|
E]---|

*****

Riff... Everything, really.
||-------------||
||-------------||
||-------------||
||---2---2-----||
||---2---2-----||
||---0---0-----||

 --- Alternatively, this works, too... ---
||-------------||
||-------------||
||-------------||
||-------------||
||---7---7-----||
||---0---0-----||

Solo:
* From what I can tell from the video, it looks like you play either a fretted seven on
the A string, or a five and/or nine on the e and B strings, respectively, and tremolo
pick a lot, sometimes breaking and sometimes playing.  Sounds like there's a lot of echo
and maybe some whammy or phaser or something in there to make that effect, too.  It's
just too blurry and I don't have the pedals to work something out.
Tap to rate this tab
# A B C D E F G H I J K L M N O P Q R S T U V W X Y Z