Song name
# A B C D E F G H I J K L M N O P Q R S T U V W X Y Z

Ministry - Supermaniac Soul tab

   
This is my first guitar tab so yeah.
This is basically the main part of the song
   ------------------------------------------------------|
   ------------------------------------------------------|
   ------------------------------------------------------|
   --2--2--2--1------------------------------------------|
   --2--2--2--1------------------------------------------|
   --2--2--2--1------------------------------------------|
Then there's a part that goes like this
   ------------------------------------------------------|
   ------------------------------------------------------|
   ------------------------------------------------------|
   --2--1--2--1--2--x--x--x------------------------------|
   --2--1--2--1--2--x--x--x------------------------------|
   --2--1--2--1--2--x--x--x------------------------------|
And After that basically it's a lot of x's, with the rythym.
Tap to rate this tab
 
# A B C D E F G H I J K L M N O P Q R S T U V W X Y Z