Guitaretab - guitar tabs
Song name
# A B C D E F G H I J K L M N O P Q R S T U V W X Y Z

Minor Majority - Supergirl tab

Supergirl by Jim Boggia

Artist’s website:  www.jimboggia.com

This quiet tearjerker requires a bit of intermediate dexterity, but you’ll pick it up
a little practice.  Each verse and chorus is identical.  An interesting thing is that the
note on the B string maintains a “drone” throughout all the chords in the verse.  The 
is driven by a walking bass line on the bottom string of each chord.  Play the
note first, them lightly strum the rest of the chord.  Listen to the recording for the rhythm.

-------------------------------------------------------------------------------
			     Supergirl – Jim Boggia
-------------------------------------------------------------------------------
Tabbed by: BealeStreet63
Email: bealestreet63@mac.com

Tuning: Standard

VERSE:
       Wait…                     I’ve got some more to say.                   If you’re going
e|-----X-------------X---------------------X--------X---------------|
B|-----3-------------3---------------------3--------3---------------|
G|-----0—h2—p0-----2---p0----------------0--------2-----------------|
D|-----0-------------0---------------------2--------0---------------|
A|-----2--  -------2--2---------------------2-----2--2--------------|
E|--3--3----------X--X------------------0--0-----X--X---------------|
[ Tab from: http://www.guitaretab.com/m/minor-majority/144536.html ]
      on your way,          take this along.                  (repeat)
e|-------------------0------------0--------X--------------|
B|-----3-------------3------------3--------3--------------|
G|-----0-------------2------------0--------2--------------|
D|-----2----------0---------------2-----0--0--------------|
A|--3--3----------X---------------2-----X--X--------------|
E|--X--X----------X--X---------0--0-----X--X--------------|


CHORUS:
      As you go       off in the sky      like Supergirl -   off in the
e|-----------1------------0-----------X-------------|
B|-----------3------------3-----------1-------------|
G|-----------0------------2-----------2-------------|
D|-----------2---------0--0-----------2-------------|
A|--------3--3---------X--X--------0--0-------------|
E|--------X--X---------X--X--------X--X-------------|

          sky to save the world,   always remember there’s
e|-----X-------------X------------0------0--------------|
B|-----3-------------1------------3------0--------------|
G|-----2-------------0------------2------2--------------|
D|-----0-------------2------------0------1--------------|
A|--2--2----------3--3------------X------X--------------|
E|--X--X----------X--X------------X------X--------------|

     someone to save at home.
e|------0-----------2---------------------------------|
B|------0-----------1---------------------------------|
G|------0-----------2---------------------------------|
D|------2-----------0---------------------------------|
A|------X-----------0---------------------------------|
E|------X-----------X---------------------------------|

h =hammer-on
p =pull-off
x =Mute note
=============================================================

Additions and corrections welcome!
bealestreet63@mac.com

Make music, not war!

ILYWXOS
Related for Supergirl tab
Advertisement will be closed in 10 seconds