Song name
# A B C D E F G H I J K L M N O P Q R S T U V W X Y Z

Minor Majority - What I Deserve chords

Highlighted       Show chord diagrams
           Dm         A#            C
There were times, she cried, when I do wonder why
      Dm       A#      A
We're all so afraid to die
        Dm           A#          C
See her eyes getting wet by the third cigarette 
  Dm       C         Dm
Politely I asked her why

                Dm      A#                C 
There's so many people around me, and it tears me apart
        Dm              A#          A
Seems I can't commit it all without breaking someone's heart
         Dm   A#           C
And when I'm alone at the end of the day
           Dm            C   Dm
There's no one to see if I'm OK

Solo:

 Dm     A#     C             Dm                A#  A

-10--8--6------------6--5------------------------------|    
-----------10--8--5--------8--6--5--6--5--6--5-----5---|
------------------------------------------------7------|
-------------------------------------------------------|
-------------------------------------------------------|
-------------------------------------------------------|

 Dm     A#     C               Dm    C     Dm  

-10--8--6------------6--5---------6-----6-5-----|
-----------10--8--5--------8----6-----5---------|
------------------------------7-----6-----------|
------------------------------------------------|
------------------------------------------------|
------------------------------------------------|

      Dm          A#            C
And I do care for you, she said kissing my cheek
     Dm        A#          A
But you'll be gone by the end of the week
       Dm        A#       C
And if I was to wait for someone like you
         Dm           C         Dm
Then I'd have to give up what I do

      Dm      A#      C
And I hate myself for telling you this
    Dm         A#               A
But you're no enough she said, spotting her lip
          Dm          A#          C
You might think I'm a coward, and not having the nerve
        Dm       C   Dm
But I'm not what you deserve

Outro:

 Dm     A#     C             Dm                A#  A

-10--8--6------------6--5------------------------------|    
-----------10--8--5--------8--6--5--6--5--6--5-----5---|
------------------------------------------------7------|
-------------------------------------------------------|
-------------------------------------------------------|
-------------------------------------------------------|

 Dm     A#     C               Dm    C     Dm  

-10--8--6------------6--5---------6-----6-5-----|
-----------10--8--5--------8----6-----5---------|
------------------------------7-----6-----------|
------------------------------------------------|
------------------------------------------------|
------------------------------------------------|

Tap to rate this tab
# A B C D E F G H I J K L M N O P Q R S T U V W X Y Z