Song name
# A B C D E F G H I J K L M N O P Q R S T U V W X Y Z

Minor Threat - It Follows tab

Help us improve GuitareTab! Take a short survey!
-------------------------------------------------------------------------------
			     It follows - Minor threat
-------------------------------------------------------------------------------
Tabbed by: raminile
Email: offspring248@hotmail.com

I saw that nobody's put this up and people have requested it so here it is!

Note: I have tried to write out the timings but there's a lot of strumming variations so 
listen to the song. I used this video to tab it: http://www.youtube.com/watch?v=CVfLUyOHIPE
Enjoy!

Bass intro, then
e|---------------------|
B|---------------------|
G|-9-9-9-999-9-9-9-999-|
D|-9-9-9-999-9-9-9-999-|
A|-7-7-7-777-7-7-7-777-|
E|---------------------|

Verse x3
e|-----------------------------------------------|
B|-----------------------------------------------|
G|-------------7-7--7--------9-9-9-999-9-9-9-999-|
D|-9-9-9--8-7--7-7--7-4-4--4-9-9-9-999-9-9-9-999-|
A|-9-9-9--8-7--5-5--5-4-4--4-7-7-7-777-7-7-7-777-|
E|-7-7-7--6-5---------2-2--2---------------------|

Chorus
Play this x3
e|-----------------------------|
B|-----------------------------|
G|---------------9-9--9-9-9--9-|
D|-5-5--5-7-7--7-9-9--9-9-9--9-|
A|-5-5--5-7-7--7-7-7--7-7-7--7-|
E|-3-3--3-5-5--5---------------|

Then end with
e|-----------------------------|
B|-----------------------------|
G|-----------------------------|
D|-5-5--5-7-7--7-4-4--4-4-4--4-|
A|-5-5--5-7-7--7-4-4--4-4-4--4-|
E|-3-3--3-5-5--5-2-2--2-2-2--2-|

Verse x5
Chorus x4

Post Chorus x2
e|-----------------------|
B|-----------------------|
G|-9-----7---------------|
D|-9-9-7-7----4-4--4-4-4-|
A|-7-9-7-5----4-4--4-4-4-|
E|---7-5---(0)2-2--2-2-2-|
              . .  . . .

Break x2(I thought I had outrun it..)
e|---------------------------------|
B|---------------------------------|
G|---------------------------------|
D|-4-4-4-4-6-6-6-6-7-7-7-7-4-4-4-4-|
A|-4-4-4-4-6-6-6-6-7-7-7-7-4-4-4-4-|
E|-2-2-2-2-4-4-4-4-5-5-5-5-2-2-2-2-|
   . . . . . . . . . . . . . . . .

Then
e|------------------------------------------------|
B|-------------------------------------------7----|
G|-------------------------------------------9b11-|
D|-4-4--4-6-6--6-7-7--7-9-9--9-9-9--9-9-9--9------|
A|-4-4--4-6-6--6-7-7--7-9-9--9-9-9--9-9-9--9------|
E|-2-2--2-4-4--4-5-5--5-7-7--7-7-7--7-7-7--7------|
   . .  . . .  . . .  .

Chorus x3

Outro thing
e|------------------------------------------------------|
B|------------------------------------------------------|
G|------------------------------------------------------|
D|-2-2-------------2-2-------------2-2-----------2---2~-|
A|-2-2-------------2-2-------------2-2-----------2---2~-|
E|-0-0-(0)0-0-0-(0)0-0-(0)0-0-0-(0)0-0-(0)0-0-0--0---0~-|
          . . .           . . .           . . .

| b  bend
| x  Mute note
===============================================================================
Related for It Follows tab