Song name
# A B C D E F G H I J K L M N O P Q R S T U V W X Y Z

Minor Threat - Little Friend tab

 Intro
E|---------------------------------------------------------------------------|
B|---------------------------------------------------------------------------|
G|---------------------------------------------------------------------------|
D|---------------------------------------------------------------------------|
A|----------------------------------------------3/5-5-5-5--3/5-5-5-5---\-----|
E|--4/6-6-6-6--4/6-6-6-6--6/8-8-8-8--6/8-8-8-8-------------------------------|

   Verse				Chorus
E|------------------------------------|--------------------------------------|
B|------------------------------(x4)--|---------------------------------(x2)-|
G|--5-3-6--3-3-3--8-8-----------------|------------------------6-6-----------|
D|--3-1-6--3-3-3--8-8--6-6-6-6--------|------------------------6-6--4-4-4----|
A|------4--1-1-1--6-6--6-6-6-6--------|------------------------4-4--4-4-4----|
E|---------------------4-4-4-4--------|--4/6-6-6-6--4/6-6-6-6-------2-2-2----|

E|---------------------------------------------------------------------------|
B|---------------------------------------------------------------------------|
G|------------------------8-8-8----------------------------------------------|
D|------------------------8-8-8--6-6-6-------------------------10------------|
A|------------------------6-6-6--6-6-6-------------------------10------------|
E|--6/8-8-8-8--6/8-8-8-8---------4-4-4---6/8-8-8-8--6/8-8-8-8--8-------------|

   Repeat Verse/Chorus

   Outro
E|-------------------|-------------------------------------------------(x )--|
B|-------------(xX)--|-------------------------------------------------------|
G|-------------------|------------------------------------------------8-8-8--|
D|-------------------|--4-4-4--6-6-6--4-4--8-8-8---4-4-4--6-6-6--4-4--8-8-8--|
A|-------------------|--4-4-4--6-6-6--4-4--8-8-8---4-4-4--6-6-6--4-4--6-6-6--|
E|--6/8-8-8-8--------|--2-2-2--4-4-4--2-2--6-6-6---2-2-2--4-4-4--2-2---------|

E|---------------------------------------------------------------------------||
B|---------------------------------------------------------------------------||
G|--8------------------------------------------------------------------------||
D|--8------------------------------------------------------------------------||
A|--6------------------------------------------------------------------------||
E|---------------------------------------------------------------------------||

Tap to rate this tab
# A B C D E F G H I J K L M N O P Q R S T U V W X Y Z