Song name
# A B C D E F G H I J K L M N O P Q R S T U V W X Y Z

Minor Threat - Guilty Of Being White tab

Artist:  Minor Threat
Song:  Guilty of Being White
Album:  Complete Discography
Track:  13
Tabbed by:  Rick (RCGoalie1@aol.com)
AIM:  unhlax23


Chords:

G5   (355xxx)
D5   (x577xx)
Bb5  (688xxx)
F2   (x8-10-10xx)
C5   (x355xxx)
F5   (133xxx)


Verse:  played very fast

E|------------------------------|
B|------------------------------|
G|--------7-7-7-------10-10-10--|
D|--5-5-5-7-7-7-8-8-8-10-10-10--|
A|--5-5-5-5-5-5-8-8-8--8--8--8--|
E|--3-3-3-------6-6-6-----------|


Chorus:

E|-------------------------------------|
B|-------------------------------------|
G|-7-7-7-7-7-7--5-5--------------------|
D|-7-7-7-7-7-7--5-5--5-5-5-5-5-5-5-5---|
A|-5-5-5-5-5-5--3-3--5-5-5-5-5-5-5-5---|
E|-------------------3-3-3-3-3-3-3-3---|


Bridge:

E|---------------------------------------------|
B|---------------------------------------------|
G|----------------------------------------5----|
D|--8-8-8-8-8-8--3-3-3-3-3-3--5-5-5-5-5-5-5-5--|
A|--8-8-8-8-8-8--3-3-3-3-3-3--5-5-5-5-5-5-3-5--|
E|--6-6-6-6-6-6--1-1-1-1-1-1--3-3-3-3-3-3---3--|


That's it.  Listen to the song, figure out what goes where, and have fun.
Rate this please, and email me with questions and stuff.  Later.
Tap to rate this tab
# A B C D E F G H I J K L M N O P Q R S T U V W X Y Z