Song name
# A B C D E F G H I J K L M N O P Q R S T U V W X Y Z

Minor Threat - Straight Edge tab

MINOR THREAT STRAIGHT EDGE!

INTRO
|---------------------------------------------|
|---------------------------------------------|
|---------------------------------------------|
|--00-33-00-33-00-33--------------------------|
|--00-33-00-33-00-33--------------------------|
|--00-33-00-33-00-33--------------------------|
VERSE- do INTRO riff again then do...
|-------------------------------------------------|
|-------------------------------------------------|
|-------------------------------------------------|
|--55-33-0-55-33-0-55-33-0-77-55-0-77-55-0-77-55--|
|--55-33-0-55-33-0-55-33-0-77-55-0-77-55-0-77-55--|
|--55-33-0-55-33-0-55-33-0-77-55-0-77-55-0-77-55--|
CHORUS "I've got Straight Edge!"
|---------------------------------------------|
|---------------------------------------------|
|---------------------------------------------|
|--00-33-00-33-00-33--------------------------|
|--00-33-00-33-00-33--------------------------|
|--00-33-00-33-00-33--------------------------|
REPEAT VERSE!
THEN DO CHORUS 5x! as he keeps singing "I've got Straight Edge"
Tap to rate this tab
# A B C D E F G H I J K L M N O P Q R S T U V W X Y Z