Song name
# A B C D E F G H I J K L M N O P Q R S T U V W X Y Z

Minor Threat - Screaming At A Wall tab

Screaming At A Wall
By Minor Threat

Intro
e---------------------------------------------------------|
B---------------------------------------8888888888888888--|
G-2-4-555555555-----------2-4-555555555-7777777777777777--|
D-2-4-555555555-555555555-2-4-555555555-5555555555555555--|
A-0-2-333333333-555555555-0-2-333333333-------------------|
E---------------333333333---------------------------------|

Verse
e----------------------------|
B-------66-------------------|
G-22-44-55-55----------------|
D-22-44-33-55-55555555-------|
A-00-22----33-55555555-------|
E-------------33333333-------|

Chorus
e-------------------|
B-------------------|
G-3-4-5----6-7-8----|
D-3-4-5-5--6-7-8-8--|
A-1-2-3-5--4-5-6-8--|
E-------3--------6--|

Bridge
e--------------------|
B--------------------|
G------9999-777------|
D-9999-9999-777-7777-|
A-9999-7777-555-7777-|
E-7777----------5555-|
Tap to rate this tab
 
# A B C D E F G H I J K L M N O P Q R S T U V W X Y Z