Guitaretab - guitar tabs
Song name
# A B C D E F G H I J K L M N O P Q R S T U V W X Y Z

Minor Threat - Out Of Step tab

Artist: Minor Threat
Song: Out Of Step
Guitarists: Brian Baker and Lyle Preslar


This song is really quick, and really easy.

Verse
----------------------------------|
----------------------------------|
----------------------------------|
--7-10-7--7-10-7---12---14-12-----|
--5-8--5--5-8--5---10---12-10-----|x4
----------------------------------|

Chorus
---------------------------------------------------------------|
---------------------------------------------------------------|
-----------------------------------------------9-9-9-9-9-9-9-9-|
--9-9-9-9-9-9-9-9----6-6-6----9-9-9-9-9-9-9-9--7-7-7-7-7-7-7-7-|
--7-7-7-7-7-7-7-7----4-4-4----7-7-7-7-7-7-7-7------------------|
---------------------------------------------------------------|x2

2nd Verse
----------------------------------|
----------------------------------|
----------------------------------|
--7-10-7--7-10-7---12---14-12-----|
--5-8--5--5-8--5---10---12-10-----|x4
----------------------------------|
[ Tab from: http://www.guitaretab.com/m/minor-threat/75722.html ]
2nd Chorus
---------------------------------------------------------------|
---------------------------------------------------------------|
-----------------------------------------------9-9-9-9-9-9-9-9-|
--9-9-9-9-9-9-9-9----6-6-6----9-9-9-9-9-9-9-9--7-7-7-7-7-7-7-7-|
--7-7-7-7-7-7-7-7----4-4-4----7-7-7-7-7-7-7-7------------------|
---------------------------------------------------------------|x2
{Bass Interlude}
There's no guitar part for this interlude but you can follow the baseline with this:
------------------------------------------------|
------------------------------------------------|
------------------------------------------------|
---7-10-7--7-10-7----5-8-5--5-8-5---------------|
---5-8--5--5-8--5----3-6-3--3-6-3---------------|
------------------------------------------------|x8
Final Chorus
---------------------------------------------------------------|
---------------------------------------------------------------|
-----------------------------------------------9-9-9-9-9-9-9-9-|
--9-9-9-9-9-9-9-9----6-6-6----9-9-9-9-9-9-9-9--7-7-7-7-7-7-7-7-|
--7-7-7-7-7-7-7-7----4-4-4----7-7-7-7-7-7-7-7------------------|
---------------------------------------------------------------|x2
Related for Out Of Step tab
Advertisement will be closed in 10 seconds