Song name
# A B C D E F G H I J K L M N O P Q R S T U V W X Y Z

Minus The Bear - Lets Play In A Five Guitar Band tab

Help us improve GuitareTab! Take a short survey!
If you are not familiar with Dave Knudson's guitar playing style of tapping everything,
will be now. All taps are appropriately labeled with an 'h' before the note, so you know
tap it rather than finger-pick it. You can figure out how to play this how you want. I 
my index finger on my right hand and the index, ring and pinky fingers to play with my
hand.

AThe two parts listed as "Jake Snider" are parts played by the lead singer because Dave
to use some effect that I cannot discern without actually having it to mess around and
to get the sound right. If i ever get that sound I will try my best to tab Dave's parts 
Bridge 1 and the end of the song.

If you doubt this tab, the easiest way to figure it out for yourself is shifting the
on your media player left or right, as the guitar parts are isolated on either speaker.

This song is a lot of fun to play, thanks for checking out my tab!

Tabbed by: Dennis Tour

Played in Drop D tuning (DADgbe)

Intro

e|-----------------------------------|
b|---------------h5h12p5-h5h15p5-----|
g|-----------------------------------|
D|-----------h9----------------------|  x4
A|-h9p0h2h5--------------------------|
D|-----------------------------------|


Verse 1

"That was the last time..."
|--------------------|
|--------------------|
|--------------------|
|----------h9p0h4h5--|  x16
|-h9p0h2h5-----------|
|--------------------|

        "And she was something else."
|-----------------------------------|
|---------------h5h12p5-h5h15p5-----|
|-----------------------------------|
|-----------h9----------------------| x2
|-h9p0h2h5--------------------------|
|-----------------------------------|


Verse 2

               "A few summers ago..."
|-----------------------------------|
|---------------h5h12p5-h5h15p5-----|
|-----------------------------------|
|-----------h9----------------------| x2
|-h9p0h2h5--------------------------|
|-----------------------------------|

|--------------------|
|--------------------|
|--------------------|
|----------h9p0h4h5--| x8
|-h9p0h2h5-----------|
|--------------------|

              "I didn't know at the time."
|-----------------------------------|
|---------------h5h12p5-h5h15p5-----|
|-----------------------------------|
|-----------h9----------------------|
|-h9p0h2h5--------------------------|
|-----------------------------------|

|------------------------------------|
|---------------h5h12p5h15p5h15p5\3--|
|------------------------------------|
|-----------h9-----------------------|
|-h9p0h2h5---------------------------|
|------------------------------------|


Chorus 1

this 3 times
|----------------------------------------------------------------------------|
|----------------------------------------------------------------------------|
|----------------------------------------------------------------------------|
|----------h9p0h4h5----------h9p0h4h5----------h9p0h4h5h12p5h12p5h14p5h14p5--|
|-h9p0h2h5----------h9p0h2h5----------h9p0h2h5-------------------------------|
|----------------------------------------------------------------------------|

end on this
|----------------------------------------------------|
|----------------------------------------------------|
|----------------------------------------------------|
|----------h9p0h4h5----------h9p0h4h5----------h9-0--|
|-h9p0h2h5----------h9p0h2h5----------h9p0h2h5----0--|
|-------------------------------------------------0--|


Bridge 1

(Jake Snider, Guitar 2)

|----------------------|
|----------------------|
|----------------------|
|--14-16---------------|  x4
|---------12/14-14/16--|
|----------------------|

Unfortunately, Dave's guitar here is undecipherable without a live video,
Or playing around with the effect he uses, which I do not have.


Verse 3

"Blinds drawn at twelve noon..."
|-----------------------------------|
|---------------h5h12p5-h5h15p5-----|
|-----------------------------------|
|-----------h9----------------------|  x4
|-h9p0h2h5--------------------------|
|-----------------------------------|

|--------------h5h12p5\2h14p2--|
|------------------------------|
|------------------------------|
|-----------h9-----------------| x3
|-h9p0h2h5---------------------|
|------------------------------|

|------------------------------------|
|---------------h5h12p5h15p5h15p5\3--|
|------------------------------------|
|-----------h9-----------------------|
|-h9p0h2h5---------------------------|
|------------------------------------|


Chorus 2 (same thing as chorus 1)

this 3 times
|----------------------------------------------------------------------------|
|----------------------------------------------------------------------------|
|----------------------------------------------------------------------------|
|----------h9p0h4h5----------h9p0h4h5----------h9p0h4h5h12p5h12p5h14p5h14p5--|
|-h9p0h2h5----------h9p0h2h5----------h9p0h2h5-------------------------------|
|----------------------------------------------------------------------------|

end on this
|----------------------------------------------------|
|----------------------------------------------------|
|----------------------------------------------------|
|----------h9p0h4h5----------h9p0h4h5----------h9-0--|
|-h9p0h2h5----------h9p0h2h5----------h9p0h2h5----0--|
|-------------------------------------------------0--|


Bridge 2
             "Move on..."
|----------------------------------h5h12p5\2h14p2--h5h12p5\2h14p2--|
|--h5h12p5\3h15p3--h5h12p5\3h15p3----------------------------------|
|------------------------------------------------------------------|
|------------------------------------------------------------------|
|------------------------------------------------------------------|
|------------------------------------------------------------------|

|-----------------------|
|--h5h12p5h15p5h15p5\3--|
|-----------------------|
|-----------------------|
|-----------------------|
|-----------------------|


Chorus 3

this 3 times
|----------------------------------------------------------------------------|
|----------------------------------------------------------------------------|
|----------------------------------------------------------------------------|
|----------h9p0h4h5----------h9p0h4h5----------h9p0h4h5h12p5h12p5h14p5h14p5--|
|-h9p0h2h5----------h9p0h2h5----------h9p0h2h5-------------------------------|
|----------------------------------------------------------------------------|

|----------------------------------------------------|
|----------------------------------------------------|
|----------------------------------------------------|
|----------h9p0h4h5----------h9p0h4h5----------h9-0--|
|-h9p0h2h5----------h9p0h2h5----------h9p0h2h5----0--|
|-------------------------------------------------0--|

|-------------------------------------|
|-------------------------------------|
|-------------------------------------|
|----------h9p0h4h5-------------------| x7
|-h9p0h2h5----------h9p0h2h5----------|
|----------------------------7p0h2h4--|

|----------------------------------------------------|
|----------------------------------------------------|
|----------------------------------------------------|
|----------h9p0h4h5----------h9p0h4h5----------h9-0--|
|-h9p0h2h5----------h9p0h2h5----------h9p0h2h5----0--|
|-------------------------------------------------0--|


From 3:18 and on,

(Jake Snider, Guitar 2)

This riff, with variations of two or three 12's at the end
|-----------------------------|
|-----------------------------|
|-----9--9/16-----------------|
|--9-----------14--14\12--12--|
|-----------------------------|
|-----------------------------|

this riff and minor variations
|-----------------|
|-----------------|
|----7h9----7-----|
|--------9--------|
|-10----------10--|
|-----------------|

meow
|----------------------------------------|
|----------------------------------------|
|-----9--9/16----------------------------|
|--9-----------14--14\12--12-------------|
|----------------------------10--10--10--|
|----------------------------------------|

                          |--------------|
                          |--------------|
  this instead once       |--7------7----|
                          |--------------|
                          |----10----10--|
                          |--------------|

FINAL OUTRO RIFF

|---------------------------------------------------------|
|---------------------------------------------------------|
|--7h9----7----7--------7----7h9-9----7----7h9-9--9---7-9-|
|------9------------7h9---------------------------------0-|
|-----------10---10-------10-------10---10----------10--0-|
|-------------------------------------------------------0-|
Related for Lets Play In A Five Guitar Band tab