Song name
# A B C D E F G H I J K L M N O P Q R S T U V W X Y Z

Minus The Bear - Part 2 tab

PART 2
MINUS THE BEAR
PLANET OF ICE
TABBED BY KAPLAC
GUITARTABCREATOR.COM

Second tab to date!

This is a rather straight-forward song. The guitar solos are a bit confusing. I'm pretty
there are 2 guitar solos, but

I'm not sure if the rhythm is looped, or the guitarists alternate playing. I offer
to both methods, just listen to

the song and figure out which works best for you.

There is a capo on the 2nd fret, but I tabbed the song like there is no capo. So just
the sucker on there, and all 2s are

now played as open.

CAPO ON 2ND FRET
INTRO
E|--------2-------------2-------------2-------------2--|
B|--------3-------------3-------------3-------------3--|
G|-----------------------------------------------------|
D|-----4-------------4-------------4-------------4-----|
A|--2----------2--2----------2--2----------2--2--------|
E|-----------------------------------------------------|


E|-----------5-------------5-----------3-------------3--|
B|-----------3-------------3-----------3-------------3--|
G|------------------------------------------------------|
D|--------4-------------4-----------4-------------4-----|
A|--2--2----------2--2--------2--2----------2--2--------|
E|------------------------------------------------------|


E|----------2-------------2-------------2-------------2--|
B|----------3-------------3-------------3-------------3--|
G|-------------------------------------------------------|
D|-------4-------------4-------------4-------------4-----|
A|--2--2----------2--2----------2--2----------2--2-------|
E|-------------------------------------------------------|


E|--------------------------------------2-------------2--|
B|-----------5-----------5--------------2-------------2--|
G|-----------2-----------2-------------------------------|
D|-------------------------------------------------------|
A|--2-----4-----------4--------------2-------------2-----|
E|-----2--------2--2-----------3--3----------3--3--------|


E|-----------2-------------2-------------2-------------2--|
B|-----------3-------------3-------------3-------------3--|
G|--------------------------------------------------------|
D|--------4-------------4-------------4-------------4-----|
A|-----2----------2--2----------2--2----------2--2--------|
E|--5-----------------------------------------------------|


E|--------------------------------------2-------------2--|
B|-----------5-----------5--------------2-------------2--|
G|-----------2-----------2-------------------------------|
D|-------------------------------------------------------|
A|--2-----4-----------4--------------2-------------2-----|
E|-----2--------2--2-----------3--3----------3--3--------|


INTRO part2

guitar 1
 Use slide
E|---------------------------------------10/12\10-----------------------|
B|--10/12-------------------------10/12---------------------------------|
G|-----------9/11-------7h9--------------------------9/11----11\9--7h9--|
D|---------------------------9------------------------------------------|
A|----------------------------------------------------------------------|
E|----------------------------------------------------------------------|

guitar 2
These are the chords, listen to the song for the strum pattern.
E|--2----2----2--|
B|--3----5----2--|
G|--2----2----2--|
D|--4----2----2--|
A|--2----4----2--|
E|------------3--| x2

VERSE
Guitar 1 = Plays variations on the chords. It's mostly just the arpeggios and random
that fits within the key of Bm.

The improv mostly consists of enharmonics and the melody loosely follows the vocals.

Guitar 2
E|--------2-----------2-------------2-------------2--------------2------------2--------|
B|--------3-----------3-------------5-------------5--------------2------------2--------|
G|----------------------------------2-------------2------------------------------------|
D|-----4-----------4-------------------------------------------------------------------|
A|--2--------2--2----------2-----4--------------4-------------2-------------2----------|
E|----------------------------2-----------2--2----------2--3----------3--3----------5--| x5

BREAKDOWN/SOLO
guitar 2
E|--------------------------------|
B|--------------------------------|
G|--4-----------------------------|
D|--4----4--4----4--4--5----5--5--|
A|--2----4--4----4--4--5----5--5--|
E|-------2--2----2--2--3----3--3--| x6 (cue solos) Repeat til the end.

GUITAR 1 SOLO (after the first six reps of rhythm guitar)

E|--------------------------------------12------14--12----10--12---9/14--|
B|--14----------------14--------------------14---------------------------|
G|------14--16------------14--16-----------------------------------------|
D|--------------16----------------16-------------------------------------|
A|-----------------------------------------------------------------------|
E|-----------------------------------------------------------------------|


E|----/17--19-----------------------------|
B|-------------19--19--17-----------------|
G|-------------------------18/19----------|
D|--------------------------------21--19--|
A|----------------------------------------|
E|----------------------------------------|

connecting phrase between solo 1 and 2:
E|------------------------------------------|
B|--14--------------14--15------------------|
G|------14--16--------------16--18--16--14--|
D|------------------------------------------|
A|------------------------------------------|
E|------------------------------------------|


GUITAR 2 SOLO
E|-------------------------------------------------------------------------------|
B|------------------14/15--------15------15------16/17----15--14--15--14---------|
G|--16--14--16--14-----------16------16------16---------------------------16p14--|
D|-------------------------------------------------------------------------------|
A|-------------------------------------------------------------------------------|
E|-------------------------------------------------------------------------------|

E|----------------------------------|
B|----------------------------------|
G|--16--14--------------------------|
D|----------17--16--17--16--17--16--|
A|----------------------------------|
E|----------------------------------|

E|--------------------------------------------------------------------------------|
B|------------------14/15--------15------15------16/17----15--14--12--14--15--14--|
G|--16--14--16--14-----------16------16------16-----------------------------------|
D|--------------------------------------------------------------------------------|
A|--------------------------------------------------------------------------------|
E|--------------------------------------------------------------------------------|

E|----------------------------|
B|--12--14----12h14p12h14p12--|
G|----------------------------|
D|----------------------------|
A|----------------------------|
E|----------------------------|

NOTE ON GUITAR 2 SOLO
 Come in during the guitar 1 solo above, at the second line where the slide to 17 is.

 This entrance is very hard to time, the last 6 notes should be coming in right along
the guitar 1 ending, the last two notes are identical. These two solos can also be turned
one big solo as well, just take the last two notes out of the first solo and go straight 
the guitar 2 solo.

 Since there are 2 guitarists in the band and 2 solos, I'm assuming that the rhythm
part is being looped.

ENJOY!

Feel free to send comments and/or criticisms my way via private messaging, or to
Graffiytttti@hotmail.com
Tap to rate this tab
# A B C D E F G H I J K L M N O P Q R S T U V W X Y Z