Song name
# A B C D E F G H I J K L M N O P Q R S T U V W X Y Z

Minus The Bear - Guns Ammo tab

-------------------------------------------------------------------------------
			     Guns & Ammo - Minus The Bear
-------------------------------------------------------------------------------
Tabbed by: Nick Peterson
Email:nickmpetersonAThotmailDOTcom

My first time doing this--it takes a lot longer than I thought. Let me know if
I messed up. And this is just the guitar played by Dave; Jake has a few additions
here and there, but I didn't include them.

Tuning: Standard

Intro
(00:00)
e|---------------------------------------------------------------------------|
B|----8----8-----8---8--------8-------8\7-----7----7----2-----2/-------------|
G|----------------------------------------------------------2----------------| X4
D|-----------------9---9----9---9---9------------7---------------------------|
A|10----9-----7-----------7-------7--------5----------0----------------------|
E|---------------------------------------------------------------------------|

Verse
(00:29)
e|---------------------------------------------------------------------------|
B|--5--5---5--5/7---7--7---3--3/5---5--5---5--5/7---7--7---3--3--------------|
G|--6-6----6-6--------7----4-4------6-6----6-6--------7----4-4---------------|
D|---------------------------------------------------------------------------|
A|4------4--------5------2--------4------4--------5------2-------------------|
E|---------------------------------------------------------------------------|

e|--------------5--5--3--3--------------------5-----3------------------------|
B|-2--2--2--2---5-5---5-5--------2--2--2--2---5-----5------------------------|
G|-2-2---2-2---------------------2-2---2-2-----------------------------------|
D|---------------------------------------------------------------------------|
A|0-----0-----------------------0-----0--------------------------------------|
E|-------------3-----2-----------------------3-----2-------------------------|

Chorus
(00:57)
e|---------------------------------------------------------------------------|
B|----8----8-----8---8--------8-------8\7-----7----7----2-----2/-------------|
G|----------------------------------------------------------2----------------| X2
D|-----------------9---9----9---9---9------------7---------------------------|
A|10----9-----7-----------7-------7--------5----------0----------------------|
E|---------------------------------------------------------------------------|

Verse
(01:10)
e|---------------------------------------------------------------------------|
B|--5--5---5--5/7---7--7---3--3/5---5--5---5--5/7---7--7---3--3--------------|
G|--6-6----6-6--------7----4-4------6-6----6-6--------7----4-4---------------|
D|---------------------------------------------------------------------------|
A|4------4--------5------2--------4------4--------5------2-------------------|
E|---------------------------------------------------------------------------|

e|--------------5--5--3--3--------------------5-----3------------------------|
B|-2--2--2--2---5-5---5-5--------2--2--2--2---5-----5------------------------|
G|-2-2---2-2---------------------2-2---2-2-----------------------------------|
D|---------------------------------------------------------------------------|
A|0-----0-----------------------0-----0--------------------------------------|
E|-------------3-----2-----------------------3-----2-------------------------|

Chorus
(01:51)
e|---------------------------------------------------------------------------|
B|----8----8-----8---8--------8-------8\7-----7----7----2-----2/-------------|
G|----------------------------------------------------------2----------------| X2
D|-----------------9---9----9---9---9------------7---------------------------|
A|10----9-----7-----------7-------7--------5----------0----------------------|
E|---------------------------------------------------------------------------|

e|---------------7---7--------7-------7--------------------------------------|
B|----8----8-----8---8--------8-------8\7-----7----7----2-----2/-------------|
G|---------------------------------------------------------------------------|
D|-----------------9---9----9---9---9------------7----------2----------------|
A|10----9-----7-----------7-------7--------5----------0----------------------|
E|---------------------------------------------------------------------------|

e|---------------------------------------------------------------------------|
B|----8----8-----8---8--------8-------8\7-----7----7----2--------------------|
G|---------------------------------------------------------------------------|
D|-----------------9---9----9---9---9------------7---------------------------|
A|10----9-----7-----------7-------7--------5----------0----------------------|
E|---------------------------------------------------------------------------|

Breakdown
(2:04)
e|---------------------------------------------------------------------------|
B|------------------8----10------------------------8----10-------------------|
G|------------------7----9----2---4----------------7----9--------------------|
D|9\-------------7-----------------------------7-----------------------------|
A|---------------0------------0---2------------0-----------------------------|
E|7\-------------------------------------------------------------------------|

(2:16)
e|---------------------------------------------------------------------------|
B|-3-5---3-5---3-5------8----10-----3-5---3-5---3-5-------8----10------------|
G|----------------------7----9----------------------------7----9-------------|
D|---------------------------------------------------------------------------|
A|2----2-----2-------5------------2----2-----2---------5---------------------|
E|---------------------------------------------------------------------------|

e|---------------------------------------------------------------------------|
B|-3-2b---3-2b---3-2b-----8----10-----3-5---3-5---3-5-------8----10----------|
G|------------------------7----9----------------------------7----9-----------|
D|---------------------------------------------------------------------------|
A|2-----2------2-------5------------2----2-----2---------5-------------------|
E|---------------------------------------------------------------------------|

Transition
(2:38)
e|---------------------------------------------------------------------------|
B|----8----8-----8---8--------8-------8\7-----7----7----2-----2/-------------|
G|----------------------------------------------------------2----------------| X2
D|-----------------9---9----9---9---9------------7---------------------------|
A|10----9-----7----------------------------5----------0----------------------|
E|---------------------------------------------------------------------------|

e|---------------------------------------------------------------------------|
B|----8----8-----8---8--------8-------8\7-----7----7----2-----2--------------|
G|----------------------------------------------------------2----------------|
D|-----------------9---9----9---9---9------------7---------------------------|
A|10----9-----7----------------------------5----------0----------------------|
E|---------------------------------------------------------------------------|

e|----------------3-------3------3-------------------------------------------|
B|--2---2-------2-------2------2---------------------------------------------|
G|----2-------2-------2------2-----------------------------------------------|
D|---------------------------------------------------------------------------|
A|0--------------------------------------------------------------------------|
E|---------------------------------------------------------------------------|

Outro
(2:58)
e|---------------------------------------------------------------------------|
B|-8---8---8-----7-----------------------------------------------------------|
G|-9---9---9-----7----2------------------------------------------------------|
D|-9---9---9-----7----2------------------------------------------------------|
A|-7---7---7-----5----0------------------------------------------------------|
E|---------------------------------------------------------------------------|




| b  bend
| /  slide up
| \  slide down
| h  hammer-on
| p  pull-off
| ~  vibrato
| +  harmonic
| x  Mute note
===============================================================================
Tap to rate this tab
# A B C D E F G H I J K L M N O P Q R S T U V W X Y Z