Song name
# A B C D E F G H I J K L M N O P Q R S T U V W X Y Z

Minus The Bear - Broken China tab

-------------------------------------------------------------------------------
			     BROKEN CHINA - Minus the Bear
-------------------------------------------------------------------------------
Tabbed by: throwinshapes45

Here are the riffs for Guitar 1 (Knudson), just figure out the order for yourself
I don't own that vibrato effect that he uses here, so I can't tell you how to use it

this is my first tab so I hope it's right, heh

Effects used: distortion, delay, compressor, vibrato/pitch shifting effect

Intro
e-----------------------------------|
B-----------------------------------|
G-----------------------------------|
D----t16t16--t18--------------------|
A-------------------t16---t18-------|
D--t6------t6----t6----t6----t6-t18-|

e-----------------------------------|
B-----------------------------------|
G-----------------------------------|
D----t16t16--t18--------------------|
A-------------------t16---t18---t18-|
D--t6------t6-----t6---t6----t6-----|

e-----------------------------------|
B-----------------------------------|
G-----------------------------------|
D----t16t16--t18--------------------|
A-------------------t16---t18-------|
D--t6------t6----t6----t6----t6-t18-|

e--------------------------------------------|
B--------------------------------------------|
G--------------------------------------------|
D--------------------------------------------|
A--------------------------------------------|
D-t6--t16--t6--t13--t6--t11--t6--t9--t6--t8/-|

Verse
e-------------------------------------|
B---------------------------------t19-|
G----t16t16--t18---t16t16--t18--------|
D-------------------------------------|
A-------------------------------------|
D--t6------t6-----t6-----t6----t6-----|

e---------------------------------t18-|
B-------------------------------------|
G----t16t16--t18---t16t16--t18--------|
D-------------------------------------|
A-------------------------------------|
D--t6------t6-----t6-----t6----t6-----|

e-------------------------------------|
B---------------------------------t19-|
G----t16t16--t18---t16t16--t18--------|
D-------------------------------------|
A-------------------------------------|
D--t6------t6-----t6-----t6----t6-----|

e------------------------------------------|
B------------------------------------------|
G------------------------------------------|
D------------------------------------------|
A------------------------------------------|
D-t6--t16--t6--t13--t6--t11--t6--t9--t6--t8|


Chorus

e----------------------------------------t18-|
B-------------------------------------t19----|
G------------------------b16---t16s18--------|
D--t6--b16--t6--b18--t6------t6--------------|
A--t6-------t6-------t6------t6--------------|
D--t6-------t6-------t6------t6--------------|

Solo

e-----------------------------------------------------------------------|
B-----------------------------------------------------------------------|
G-/16-16-16-13-13-13-11-11-11-------------------------------------------|
D------------------------------13-13-13-11-11-11------------------------|
A------------------------------------------------14-14-14-11-11-11-9-9\-|
D-----------------------------------------------------------------------|

e---------------------------------------------------------------------|
B---------------------------------------------------------------------|
G-/16-16-16-13-13-13-11-11-11-----------------------------------------|
D------------------------------13-13-13-11-11-11----------------------|
A------------------------------------------------14-14-14-11-11-11-9\-|
D---------------------------------------------------------------------|

5x
e--------------------------------------|
B--------------------------------------|
G-------------------3------3-x-3-------|
D--------------------------------------|
A---------2-4-2-4-2--------------------|
D-4-6-4-6--------------4-6-------------|


tremolo picked
e----------------------------|
B----------------------------|
G--/16-13-11-----------------|
D------------13-11-----------|
A-----------------14-11-9\---|
D----------------------------|

e--------------------------------------|
B--------------------------------------|
G-------------------3------3-x-3-------|
D--------------------------------------|
A---------2-4-2-4-2--------------------|
D-4-6-4-6--------------4-6-------------|


e--------------------------------------------------|
B--------------------------------------------------|
G-/16-tp13h16-tp13h16-13-16-13-b16b16b16b16-r16b16-|
D--------------------------------------------------|
A--------------------------------------------------|
D--------------------------------------------------|

e--------------------------------------|
B--------------------------------------|
G-------------------3------3-x-3-------|
D--------------------------------------|
A---------2-4-2-4-2--------------------|
D-4-6-4-6--------------4-6-------------|

e----------------------------------------------------|
B----------------------------------------------------|
G-/tp16-tp13-13-16-13-16-13-16-13-16-13-16-13-16-16--|
D---------------------------------------------16-16--|
A----------------------------------------------------|
D----------------------------------------------------|

e--------------------------------------|
B--------------------------------------|
G-------------------3------3-x-3-------|
D--------------------------------------|
A---------2-4-2-4-2--------------------|
D-4-6-4-6--------------4-6-------------|

tremolo picked
e-----------------------------------|
B-----------------------------------|
G--/16-13-11------------------------|
D------------13-11h13p11------------|
A------------------------14-11-9\---|
D-----------------------------------|

Break

e-------------------------|
B--------------11---------|
G-------------------11----|
D---------9-11------------|
A---9-11------------------|
D-------------------------|

e------------------|
B------------------|
G------------------|
D---------9-11-11--|
A---9-11-----------|
D------------------|


Outro

e-----------------------------------------------------------------------|
B-----------------------------------------------------------------------|
G-/16-16-16-13-13-13-11-11-11-------------------------------------------|
D------------------------------13-13-13-11-11-11------------------------|
A------------------------------------------------14-14-14-11-11-11-9-9\-|
D-----------------------------------------------------------------------|

e--------------------------------------|
B--------------------14-14-14-16-16-16-|
G-/16-16-16-13-13-13-------------------|
D--------------------------------------|
A--------------------------------------|
D--------------------------------------|

e-----------------------------------|
B-----------------------------------|
G-----------------------------------|
D-13-13-13-16-16-16-14-14-14--------|
A----------------------------16-16\-|
D-----------------------------------|

e------------------------------------|
B------------------------------------|
G------------------------------------|
D-----------9-9-9-11-11-11-13-13-13--|
A-/11-11-11--------------------------|
D------------------------------------|

e-------------------------------------------------|
B-------------------------------------------------|
G----------13-13-13-16-16-16-tp16-b16r16b16r16b16-| <-not sure, but this is how I end it
D-16-16-16----------------------------------------|
A-------------------------------------------------|
D-------------------------------------------------|

Tap to rate this tab
 
# A B C D E F G H I J K L M N O P Q R S T U V W X Y Z