Song name
# A B C D E F G H I J K L M N O P Q R S T U V W X Y Z

Minus The Bear - Into The Mirror tab

-------------------------------------------------------------------------------
			     INTO THE MIRROR - Minus the Bear
-------------------------------------------------------------------------------
Tabbed by: throwinshapes45

All riffs for the song (Guitar 1/Dave Knudson)

Verse (clean)

let ring
e|-6-----9-----6-----4-----4----/6-----6-----9-----6-----4----------------|
B|-7-----9-----7-----4-----4----/6-----7-----9-----7-----4----------------|
G|-8----11-----8-----4-----4----/6-----8----11-----8-----4----------------|
D|-8----11-----8-----4-----4----/6-----8----11-----8-----4----------------|
A|-6-----9-----6-----4-----4----/6-----6-----9-----6-----4----------------|
E|-6-----9-----6-----4-----4----/6-----6-----9-----6-----4----------------|

Chorus (distorted)

e|------------------------------------------------------------------|
B|--7-----------------------------7---------------------------------|
G|--8-----11------16------18------8-----11------16------18----------|
D|--8-----11------16------18------8-----11------16------18----------|
A|--6------9------14------16------6------9------14------16----------|
E|------------------------------------------------------------------|

Bridge (clean)

let ring
e|-----11---11---9---6---6---6---6-----11--------|
B|---12---12---9---7---7---7---7-----12----------|
G|-13---11---11---8---8---6---8---/11------------|
D|-----------------------------------------------|
A|-----------------------------------------------|
E|-----------------------------------------------|

Solo (distortion, delay, wah)

e|-------------------------------------------------------------------------|
B|-------------------------------------------------------------------------|
G|-8-(8)-(8)--11-(11)-(11)--16-(16)-(16)--18-(18)-(18)---------------------|
D|-8-(8)-(8)--11-(11)-(11)--16-(16)-(16)--18-(18)-(18)---------------------|
A|-6-(6)-(6)--9--(9)--(9)---14-(14)-(14)--16-(16)-(16)---------------------|
E|-------------------------------------------------------------------------|

e|------------------------------------------------------------------|
B|------------------------------------------------------------------|
G|-8-(8)-(8)--11-(11)-(11)--16-(16)-(16)--18-x-18-x-x-x-------------|
D|-8-(8)-(8)--11-(11)-(11)--16-(16)-(16)--18-x-18-x-x-x-------------|
A|-6-(6)-(6)--9--(9)--(9)---14-(14)-(14)--16-x-16-x-x-x-------------|
E|------------------------------------------------------------------|

e|-------------------------------------------------------------------------|
B|-------------------------------------------------------------------------|
G|-8-x-8-x-x-x-11-x-11-x-x-x-16-x-16-18-18-18-18-18-18-18------------------|
D|-8-x-8-x-x-x-11-x-11-x-x-x-16-x-16-18-18-18-18-18-18-18------------------|
A|-6-x-6-x-x-x-9--x-9--x-x-x-14-x-14-16-16-16-16-16-16-16------------------|
E|-------------------------------------------------------------------------|

e|------------------------------------------------------------|
B|------------------------------------------------------------|
G|-8-x-8-x-x-x-11-x-11-x-x-x-16-x-16-x-x-x--------------------|
D|-8-x-8-x-x-x-11-x-11-x-x-x-16-x-16-x-x-x--------------------|
A|-6-x-6-x-x-x-9--x-9--x-x-x-14-x-14-x-x-x--------------------|
E|------------------------------------------------------------|
^wah pedal enters after the last muted chord)


(note: ^ = wah pedal forward [treble], v = wah pedal back [bass])

e|---------v11--------v11--------v11--------v11-----------------------------|
B|------^12--------^12--------^12--------^12--------------------------------|
G|-11h13------11h13------11h13------11h13-----------------------------------|
D|--------------------------------------------------------------------------|
A|--------------------------------------------------------------------------|
E|--------------------------------------------------------------------------|

e|-------v6------v6------v6------v6-----------------------------------------|
B|----^7------^7------^7------^7--------------------------------------------|
G|-6h8-----6h8-----6h8-----6h8----------------------------------------------|
D|--------------------------------------------------------------------------|
A|--------------------------------------------------------------------------|
E|--------------------------------------------------------------------------|

wah pedal is forward during this part
e|-----------11-----------11-----------11----------11----------11-----------|
B|------11h12--------11h12--------11h12-------11h12-------11h12-------------|
G|-11h13--------11h13--------11h13-------11h13-------11h13------------------|
D|--------------------------------------------------------------------------|
A|--------------------------------------------------------------------------|
E|--------------------------------------------------------------------------|

e|-------6-------6-------6-------6---------------------------------------|
B|----6h7-----6h7-----6h7-----6h7--6h7p6---------------------------------|
G|-6h8-----6h8-----6h8-----6h8-------------------------------------------|
D|-----------------------------------------------------------------------|
A|-----------------------------------------------------------------------|
E|-----------------------------------------------------------------------|


************************************

| /   slide up
| \   slide down
| h   hammer-on
| p   pull-off
| ~   vibrato
| +   harmonic
| x   Mute note
| b   Bend
| pb  Pre-bend
| br  Bend release
| pbr Pre-bend release
| brb Bend release bend

************************************
Tap to rate this tab
 
# A B C D E F G H I J K L M N O P Q R S T U V W X Y Z