Song name
# A B C D E F G H I J K L M N O P Q R S T U V W X Y Z

Minus The Bear - Hold Me Down tab

-----------------------------------------------------------------------------
			     Hold Me Down - Minus the Bear
-----------------------------------------------------------------------------

this is taken from the acoustic version Minus the Bear played at SXSW 2010. this is 
part.
here's the youtube video: http://www.youtube.com/watch?v=mP_DuxanJjw

Tuning: standard.

intro//verse

e|---------------------------------------------------------------------------|
B|---------------------------------------------------------------------------|
G|-------------lyrics start--------------------------------------------------|
D|-------------5h7/9----------------7----------------------------------------|
A|-----7 x64---------7 x8-----5h7----------------5-------------2-----2-------|
E|-------------------------------------7 x8---5h7----3 x8--3h5-------0 x8----|

chorus--

e|---------------------------------------------------------------------------|
B|--8-----------10----------12-----------------------------------------------|
G|--x-----------x-----------x------------------------------------------------|
D|--x--- x16----x--- x16----x--- x32-----------------------------------------|
A|--7-----------9-----------10-----------------------------------------------|
E|--5-----------7-----------8------------------------------------------------|

post-chorus--

e|---------------------------------------------------------------------------|
B|---------------------------------------------------------------------------|
G|-------4-------------------------------------------------------------------|
D|---5h7----------5----------------------------------------------------------|
A|--------7---5h7--------5-------2--2----------------------------------------|
E|-------------------5h7-----3h5----0----------------------------------------|

bridge--
[not 100% certain of this part, i know there's some flourishes Dave plays but for now i 
have the simplest part of the bridge]

e|---------------------------------------------------------------------------|
B|---------------------------------------------------------------------------|
G|---------------------------------------------------------------------------|
D|---------------------------------------------------------------------------|
A|-------------2---------------------------2---------------------------------|
E|--3 x32--3h5---3 x16--2 x16--0 x16--3 x16--3h5---3-------------------------|


song progression:
intro
verse x4
chorus x2
post-chorus x2
verse x2
chorus x2
bridge x2
chorus x 3
post-chorus x2


************************************

| /   slide up
| \   slide down
| h   hammer-on
| p   pull-off
| ~   vibrato
| +   harmonic
| x   Mute note
| b   Bend
| pb  Pre-bend
| br  Bend release
| pbr Pre-bend release
| brb Bend release bend

************************************
Tap to rate this tab
 
# A B C D E F G H I J K L M N O P Q R S T U V W X Y Z