Minus The Bear - We Are Not A Football Team Acoustic tab

We Are Not a Football Team [Acoustic] - Minus the Bear

Tabbed by Andrew Patterson
__________________________________________

Tablature Legend:

^       - Hammer-on/Pull-off
/or\    - Slide
X       - Not played/Dead note (when alone)
(#)     - Optional/Grace/Not played in every repeat	(Moral of the story, listen for the 
of this note)
~	- Let ring, and or Vibrato

oh and two ":"s at the top and bottom of a bar line incase you aren't aware means repeat 
the first set of ":"s
(Facing in the opposite direction) and then ignore it on the second time through (Unless 
otherwise).
NOTE: (This is an element of musical notation that you should learn about if for any 
you haven't already)

ie. what I'm talking about

V repeat-to-here         V repeat point
|:                      :|
|                        |
|                        |
|                        |
|                        |
|:                      :|

__________________________________________

Song Structure:

Intro
Verse 1a
Verse 1b
Chorus
Verse 1a (x2)
Chorus
Verse 2
Chorus(1) (once only this part)
Chorus
Chorus (End Variation, with

__________________________________________

Guitar 1 intro

e|:------------------------------:|
B|---7-7^0--7h--15^12-12-12-(10)--|
G|---7------7h--12----12-12-(12)--|
D|---0----------------------------|
A|--------7-----------------------|
E|:------------------------------:|


Guitar 2 intro (This part is actually keyboards, I just wrote this in for the original 
of this tab)

e|:--2-----------------------(3)-:|
B|---3-----------------------(3)--|
G|---X-----------------------(X)--|
D|---0-----------------------(2)--|
A|---X-----------------------(X)--|
E|:--x-----------------------(X)-:|

__________________________________________

Guitar 1 verse 1a
                Ending1/3	     Ending2         Ending 4
e|:------------|-------------------:|--------------:|-------------------|
B|---7-7^0--7h-|-15^12--12-12--10---|-15^12--15^12--|7h--7h-7h---7h-----|
G|---7------7h-|-12-----12-12--12---|-12-----12-----|7h--7h-7h---7h-----|
D|---0---------|--------------------|---------------|-------------------|
A|-------(7)---|--------------------|---------------|-------------------|
E|:------------|-------------------:|--------------:|-------------------|


Guitar 1 verse 1b
                Ending1/3/(4)/5      Ending2         Ending 6
e|:------------|-------------------:|--------------:|-------------------|
B|---7-7^0--7h-|-15^12-(12)-12-10---|-15^12--15^12--|7h--7h-7h---7h-----|
G|---7------7h-|-12----(12)-12-12---|-12-----12-----|7h--7h-7h---7h-----|
D|---0---------|--------------------|---------------|-------------------|
A|-------(7)---|--------------------|---------------|-------------------|
E|:------------|-------------------:|--------------:|-------------------|

Guitar 2 verse 1a/b

                      X3/5
e|----------------------:|----------------------:|
B|-----------------------|-----------------------|
G|-----7/9---------------|-----7/9--------7------|
D|--0------9--7/9-7~-(7)-|--0------9--7/9--------|
A|-----------------------|-----------------------|
E|----------------------:|----------------------:|

__________________________________________

Guitar 1 Chorus
 (1)                          (2)
e|:------------10-10\(7)10-10-|------------10-7----:|
B|--7/8-12\8-7----------------|-7/8-12\8-7------10~-|
G|----------------------------|---------------------|
D|----------------------------|---------------------|
A|----------------------------|---------------------|
E|:---------------------------|--------------------:|


Guitar 2 Chorus
                    x4
e|:------------------:|
B|---2--2---3-3--3-3--|
G|---2--2---2-2--2-2--|
D|--0--0---0----0-----|
A|--------------------|
E|:------------------:|
__________________________________________


Guitar 1 verse 2 (let notes ring)

                               X3
e|:---------10-------------------|--12----12----12----12---:|
B|---10--------------10/12-------|----10----10----10----10--|
G|-----11-----11/9----------9/7--|-9-----9-----9-----9------|
D|--9------9--------9------9-----|--------------------------|
A|-------------------------------|--------------------------|
E|:------------------------------|-------------------------:|

Guitar 2 Melody verse 2
                             Ending 1                   Ending 2                   Repeat
e|:-------------------------|--------------------------:|----10----10----10---10-:|Whole
B|-------------10-10-12-12~-|-12-12\10-10---------------|-------------------------|Verse
G|------11-11---------------|-------------11-11^9-11^9~-|-------------------------|
D|--9-9---------------------|---------------------------|-------------------------|
A|--------------------------|---------------------------|-------------------------|
E|:-------------------------|--------------------------:|------------------------:|

__________________________________________

Guitar 1 Chorus end variation

                     X3
e|------------10-7-----|
B|-7/8-12\8-7------7~--|
G|---------------------|
D|---------------------|
A|---------------------|
E|---------------------|
[VERY END]
e|---------------------|
B|-7/8-12\8-7--7~------|
G|---------------------|
D|---------------------|
A|---------------------|
E|---------------------|

Guitar 2 Chorus [VERY END]

e|---------------------|
B|--2--2---3~----------|
G|--2--2---2~----------|
D|-0--0---0------------|
A|---------------------|
E|---------------------|
Tap to rate this tab
 
# A B C D E F G H I J K L M N O P Q R S T U V W X Y Z