Song name
# A B C D E F G H I J K L M N O P Q R S T U V W X Y Z

Minus The Bear - Heaven Is A Ghost Town tab

-------------------------------------------------------------------------------
                             HEAVEN IS A GHOST TOWN - Minus The Bear
-------------------------------------------------------------------------------
Tabbed by: Dave McMahan (Dabaens)
E-mail: dabaens@gmail.com

Tuning: DADGBE

Note - This is my first tab. I transcribed this by ear so it may not be official, 
but after spending a
       lot of time playing this song, this is what sounds best to me. This is 
basically the whole song.
       Enjoy & please try out your own versions.

E|-------11----------------------------|
B|-14----9---14---12-------------------|
G|-13----9---13---11---13----13---11---|
D|-11----9---11---9----14----13---9----|
A|-0-------------------11----11---9----|
D|---------------------11----11---9----|
Tap to rate this tab
# A B C D E F G H I J K L M N O P Q R S T U V W X Y Z