Song name
# A B C D E F G H I J K L M N O P Q R S T U V W X Y Z

Minus The Bear - Knights tab

Knights - Minus The Bear

This is the second time I try to submit this tab because Ultimate-Guitar rejected it 
even though in my preview it looked fine.

Alot of credit "harmonictreacher"s cover on youtube.
Tuning: Standard
Repeat parts as needed.
Intro:
e|-----------------------------------------------------------------------------|
B|-3---3-3-3---3-3-3-3-3-3-3-3-------------------------------------------------|
G|-4---2-2-4---2-2-2-2-2-2-2-2-------------------------------------------------|
D|-4---0-0-4---0-0-0-0-0-0-0-0-------------------------------------------------|
A|-2-------2-------------------------------------------------------------------|
E|-----------------------------------------------------------------------------|

Riff 1:
e|------------------------------------------------------------------------------|
B|------------------------------------------------------------------------------|
G|--6---6---6-7-6---------------------------------------------------------------|
D|--------------------9-7-7-7-7-7-----------------------------------------------|
A|-----------------------------------10-9~--------------------------------------|
E|------------------------------------------------------------------------------|

Riff 2:
e|---14------------------------------14-------------21~------------------------|
B|------14-15~---------------------------14-15~--------------------------------|
G|--------------17-------------------------------------------------------------|
D|-----------------16~---------------------------------------------------------|
A|-----------------------------------------------------------------------------|
E|-----------------------------------------------------------------------------|







Bridge:
e|-----------------------------------------------------------------------------|
 B|-7-7--7-5-7-5---------------------------------------------------------------|
G|--x-x--x-x-x-x---Repeat as needed--------------------------------------------|
D|--4-4--4-4-4-4---------------------------------------------------------------|
A|-----------------------------------------------------------------------------|
E|-----------------------------------------------------------------------------|

e|-------------------------------------------------|
B|-------------------------------------------------|
G|----------9----9-11-9------9---------------------|
D|-9-10-11---11----------11----11-10---------------|
A|-------------------------------------------------|
E|-------------------------------------------------|


Solo:
e|---------------------------|
B|-12b----15b----------------|   Bend the G string a lot and dont bend the
B|---x-------x---------------|  B string as much for that effect.
G|-14b----17b----------------|
A|---------------------------|
E|---------------------------|

e|-------------------------------------------------------19---------------------|
B|---------------------17-17-----17-19-19-17------------------------------------|
G|-------------17-18---------18-----------------18-17-------17-16---------------|
D|-16~-16~----------------------------------------------------------------------|
A|------------------------------------------------------------------------------|
E|------------------------------------------------------------------------------|
The Last time end with the 19th fret on the high E and bend.




Same riff as the past one but lower octave.
e|-----------------------------------------7----------------------------------|
B|------------------5-5----5-7-7-5--------------------------------------------|
 G|-------------5-6------6-----------6-5~-------5~----------------------------|
D|--4~-4~-4~------------------------------------------------------------------|
A|----------------------------------------------------------------------------|
E|----------------------------------------------------------------------------|

End: Same as riff one but end in
e|-------------------------------------|
B|-------------------------------------|
G|-----6\------------------------------|
D|-------------------------------------|
A|-------------------------------------|
E|-------------------------------------|
Tap to rate this tab
 
# A B C D E F G H I J K L M N O P Q R S T U V W X Y Z