Song name
# A B C D E F G H I J K L M N O P Q R S T U V W X Y Z

Minus The Bear - Absinthe Party At The Fly Honey Warehouse Acoustic tab

-------------------------------------------------------------------------------
         Absinthe Party at the Fly Honey Warehouse - Minus the bear
-------------------------------------------------------------------------------
Tabbed by:Der_Aggster
E-mail:alexanderholstner@hotmail.com

Guitar 1 Tuning: Drop D  (d A D G B E)
Guitar 2 Tuning: Standard (E A D G B E) 

INTRO Guitar 1 ( played 3 times )

e|-----------------|    
B|---------8-------|    
G|---7-------7-----|x3  
D|-----5-----------|    
A|-----------------|    
d|-5-----5---------|    


e|---------------------------------0---| e|-------------|
B|---------8-----------0-----0---3-----| B|---3---------|
G|---7-----------2---2-----------------| G|-----0-0-2-0-|x4
D|-----5-------------------------------| D|-------------|
A|-----------0-2---2-----0-3---3-------| A|-------------|
d|-5-----5---------------------------0-| d|-2-----------|


INTRO Guitar 2 (starts at 3rd playthrough of INTRO Guitar 1, played 1 time)


e|-------------------------------------------------------|
B|-8----8---8----8---8----8---8----8---8----8---8----8---|
G|-7----7---7----7---7----7---7----7---7----7---7----7---|
D|-5--5--5--5--5--5--5--5--5--5--5--5--5--5--5--5--5--5--|
A|-------------------------------------------------------|
E|-------------------------------------------------------|

e|-------------------------------------------------|
B|-10----10----10----10----10----10----10----10----|
G|-9-----9-----9-----9-----9-----9-----9-----9-----|
D|-------------------------------------------------|
A|-12--12--12--12--12--12--12--12--12--12--12--12--|
E|-------------------------------------------------|


VERSE 1 Guitar 1 ( played 3 times )


e|-----------------|    
B|---------8-------|    
G|---7-------7-----|x3  
D|-----5-----------|    
A|-----------------|    
d|-5-----5---------|    


e|---------------------------------0---| e|-------------|
B|---------8-----------0-----0---3-----| B|---3---------|
G|---7-----------2---2-----------------| G|-----0-0-2-0-|x4
D|-----5-------------------------------| D|-------------|
A|-----------0-2---2-----0-3---3-------| A|-------------|
d|-5-----5---------------------------0-| d|-2-----------|


VERSE 1 Guitar 2 ( played 3 times )


e|-------------------------------------------------------|
B|-8----8---8----8---8----8---8----8---8----8---8----8---|
G|-7----7---7----7---7----7---7----7---7----7---7----7---|
D|-5--5--5--5--5--5--5--5--5--5--5--5--5--5--5--5--5--5--|
A|-------------------------------------------------------|
E|-------------------------------------------------------|

e|-------------------------------------------------|
B|-10----10----10----10----10----10----10----10----|
G|-9-----9-----9-----9-----9-----9-----9-----9-----|
D|-------------------------------------------------|
A|-12--12--12--12--12--12--12--12--12--12--12--12--|
E|-------------------------------------------------| 


CHORUS 1 Guitar 1


e|--------------------------------------------|
B|-1-3-0-00-------------------------55----88--|
G|-0-0-0-00--2-4-2-22---------------44----77--|x4
D|-2-2-2-22--2-2-2-22--5-7-5-55---2-22--5-55--|
A|-3-3-3-33--0-0-0-00--5-5-5-55---2-22--5-55--|
d|---------------------5-5-5-55---2-22--5-55--|

e|-3----3----3----3-----------------------------------|
B|-3----3----3----3---------------3p0------------3p0--|
G|-0----0----0----0-------2/4-2p0--------2/4-2p0------|x2
D|-0----0----0----0----2--------------2---------------|
A|-3----3----3----3----2--------------2---------------|
d|---------------------2--------------2---------------|

e|-------------------------------|
B|------3----0----------0--------|
G|---------------------------2---|
D|-------------------------------|
A|-3--------------0--------------|
d|-------------------------------|


CHORUS 1 Guitar 2


e|----------------------------3-33--0-00-3-33--|
B|------1-11-------0-00-------3-33--0-00-3-33--|
G|-0----0-00--2----2-22--0----0-00--0-00-0-00--|x4
D|-2----2-22--2----2-22--0----0-00--2-22-0-00--|
A|-3----3-33--0----0-00--2----2-22--2-22-2-22--|
E|-----------------------3----3-33--0-00-3-33--|

e|----------------------------------------------|
B|-8----8----8----8------------x-x---------x-x--|
G|-7----7----7----7----7\------x-x-7\------x-x--|x2
D|-5----5----5----5----5\------x-x-5\------x-x--|
A|-----------------------------x-x---------x-x--|
E|----------------------------------------------|

e|---------------------|
B|---------------------|
G|-/9-------------12---|
D|---------------------|
A|---------------------|
E|---------------------|


VERSE 2 Guitar 1 ( played 2 times )             
                

e|-----------------|    
B|---------8-------|    
G|---7-------7-----|x3  
D|-----5-----------|    
A|-----------------|    
d|-5-----5---------|    


e|---------------------------------0---| e|-------------|
B|---------8-----------0-----0---3-----| B|---3---------|
G|---7-----------2---2-----------------| G|-----0-0-2-0-|x4
D|-----5-------------------------------| D|-------------|
A|-----------0-2---2-----0-3---3-------| A|-------------|
d|-5-----5---------------------------0-| d|-2-----------|

VERSE 2 Guitar 2 ( played 2 times )

e|-------------------------------------------------------|
B|-8----8---8----8---8----8---8----8---8----8---8----8---|
G|-7----7---7----7---7----7---7----7---7----7---7----7---|
D|-5--5--5--5--5--5--5--5--5--5--5--5--5--5--5--5--5--5--|
A|-------------------------------------------------------|
E|-------------------------------------------------------|

e|-------------------------------------------------|
B|-10----10----10----10----10----10----10----10----|
G|-9-----9-----9-----9-----9-----9-----9-----9-----|
D|-------------------------------------------------|
A|-12--12--12--12--12--12--12--12--12--12--12--12--|
E|-------------------------------------------------| 

BREAK ( Twooooooooooo staaaaaaaaaar hotel,  hotel ) x2

VERSE 3 Guitar 1 ( played 2 times )


e|--------------------------------------------------|
B|-------8---8-------8---8-------8---8-------8---8--|
G|-7-7-7-7-7-7-7-7-7-7-7-7-7-7-7-7-7-7-7-7-7-7-7-7--|
D|-5-5-5-5-5-5-5-5-5-5-5-5-5-5-5-5-5-5-5-5-5-5-5-5--|
A|-5-5-5-5-5-5-5-5-5-5-5-5-5-5-5-5-5-5-5-5-5-5-5-5--|
d|-5-5-5---5---5-5-5---5---5-5-5---5---5-5-5---5----|

e|---------------------------------|
B|-------12--12---------12----12---|
G|-11111111111111-11-11-11-11-11---|
D|-9-9-9-9-9-9-10-10-10-10-10-10---|
A|-9-9-9-9-9-9-10-10-10-10-10-10---|
d|-9-9-9---9---10-10-10----10------|

e|--------------------------------------------------|
B|-------5---5-------5---5-------5---5-------5---5--|
G|-4-4-4-4-4-4-4-4-4-4-4-4-4-4-4-4-4-4-4-4-4-4-4-4--|
D|-2-2-2-2-2-2-2-2-2-2-2-2-2-2-2-2-2-2-2-2-2-2-2-2--|
A|-2-2-2-2-2-2-2-2-2-2-2-2-2-2-2-2-2-2-2-2-2-2-2-2--|
d|-2-2-2---2---2-2-2---2-2-2-2-2---2---2-2-2---2-2--|

VERSE 3 Guitar 2 ( played 2 times )

e|--------------------------------------------|
B|----8------8-8-----8-8-----8-8-8--8-8-8--8--|
G|----7------7-7-----7-7-----7-7-7--7-7-7--7--|
D|-5-----5-------5-------5-------5--5-5-5--5--|
A|--------------------------------------------|
E|--------------------------------------------|

e|---------------------------------------|
B|-10--10-10-10--10--10--10-10-10-10-10--|
G|-9---9--9--9---9---9---9--9--9--9--9---|
D|-12--12-12-12--12--12--12-12-12-12-12--|
A|---------------------------------------|
E|---------------------------------------|

CHORUS 2 Guitar 1 ( played 1 time )

e|--------------------------------------------|
B|-1-3-0-00-------------------------55----88--|
G|-0-0-0-00--2-4-2-22---------------44----77--|x2
D|-2-2-2-22--2-2-2-22--5-7-5-55---2-22--5-55--|
A|-3-3-3-33--0-0-0-00--5-5-5-55---2-22--5-55--|
d|---------------------5-5-5-55---2-22--5-55--|

e|-3----3----3----3----3----3---3-3-3-3--|
B|-3----3----3----3----3----3---3-3-3-3--|
G|-0----0----0----0----0----0---0-0-0-0--|
D|-0----0----0----0----0----0---0-0-0-0--|
A|-3----3----3----3----3----3---3-3-3-3--|
d|---------------------------------------|

e|--------------------------------------------|
B|-1-3-0-00-------------------------55----88--|
G|-0-0-0-00--2-4-2-22---------------44----77--|x4
D|-2-2-2-22--2-2-2-22--5-7-5-55---2-22--5-55--|
A|-3-3-3-33--0-0-0-00--5-5-5-55---2-22--5-55--|
d|---------------------5-5-5-55---2-22--5-55--|

e|-3----3----3----3-----------------------------------|
B|-3----3----3----3---------------3p0------------3p0--|
G|-0----0----0----0-------2/4-2p0--------2/4-2p0------|x3
D|-0----0----0----0----2--------------2---------------|
A|-3----3----3----3----2--------------2---------------|
d|---------------------2--------------2---------------

e|-3----3----3----3--| e|-------------------------|
B|-3----3----3----3--| B|-------------------------|
G|-0----0----0----0--| G|-------------------------|x2
D|-0----0----0----0--| D|-----2\--------------2\--|
A|-3----3----3----3--| A|-----2\--------------2\--|
d|-------------------| d|-----2\--------------2\--|

CHORUS 2 Guitar 2 ( played 1 time )

e|----------------------------3-33--0-00-3-33--|
B|------1-11-------0-00-------3-33--0-00-3-33--|
G|-0----0-00--2----2-22--0----0-00--0-00-0-00--|x2
D|-2----2-22--2----2-22--0----0-00--2-22-0-00--|
A|-3----3-33--0----0-00--2----2-22--2-22-2-22--|
E|-----------------------3----3-33--0-00-3-33--|

e|-----------------------------------------|
B|-8----8----8----8----8----8-----8-8-8-8--|
G|-7----7----7----7----7----7-----7-7-7-7--|
D|-5----5----5----5----5----5-----5-5-5-5--|
A|-----------------------------------------|
E|-----------------------------------------|

e|----------------------------3-33--0-00-3-33--|
B|------1-11-------0-00-------3-33--0-00-3-33--|
G|-0----0-00--2----2-22--0----0-00--0-00-0-00--|x4
D|-2----2-22--2----2-22--0----0-00--2-22-0-00--|
A|-3----3-33--0----0-00--2----2-22--2-22-2-22--|
E|-----------------------3----3-33--0-00-3-33--|

e|----------------------------------------------|
B|-8----8----8----8------------x-x---------x-x--|
G|-7----7----7----7----7\------x-x-7\------x-x--|x3
D|-5----5----5----5----5\------x-x-5\------x-x--|
A|-----------------------------x-x---------x-x--|
E|----------------------------------------------|

e|-------------------| e|----------------------|
B|-8----8----8----8--| B|----------------------|
G|-7----7----7----7--| G|-----7\-----------7\--|x2
D|-5----5----5----5--| D|-----5\-----------5\--|
A|-------------------| A|----------------------|
E|-------------------| E|----------------------|





************************************

| /   slide up
| \   slide down
| h   hammer-on
| p   pull-off
| ~   vibrato
| +   harmonic
| x   Mute note
| b   Bend
| pb  Pre-bend
| br  Bend release
| pbr Pre-bend release
| brb Bend release bend

************************************
Tap to rate this tab
# A B C D E F G H I J K L M N O P Q R S T U V W X Y Z