Song name
# A B C D E F G H I J K L M N O P Q R S T U V W X Y Z

Minus The Bear - Riddles tab

Riddles by Minus the Bear
(Tabbed by Taylor Raynor)

My First Tablature
I may have left out some notes in the solos. Also, I didnít feel like notating rhythm or 
bends/slides/hammer-ons/pull-offs so just listen to the song and use the tabs as a guide.


Chords used:
   Am                  G    or    G(bar)             F
---0---------------3---------3-----------------1--------|
---1---------------3---------3-----------------1--------|
---2---------------0---------4-----------------2--------|
---2---------------0---------5-----------------3--------|
---0---------------2---------5-----------------3--------|
---x---------------3---------3-----------------1--------|

Intro:
                           Am      G          Am      G             Am
------------------------------------------------------------------------|
-----------------8----8----10-----10----8-----------8-------------------|
----7----9------------------------------------9-----------9-----7-----5-|
------------------------------------------------------------------------|
------------------------------------------------------------------------|
------------------------------------------------------------------------|

 G      F       Am       G        Am       G        Am      G
---------------------------------------------------------------------------|
---------------------------------------------------------------------------|
---7-----5-----7------5------------------7-----5---------------------------|
------------------------------7-----7------------------7-----7-----7-----7-|
---------------------------------------------------------------------------|
---------------------------------------------------------------------------|

  F                                           Am             G
----------------------------------------------------------------------------|
----------------------------------------------------------------------------|
------------------------5------------5-----7-------------------------5------|
---7----7-----7--------------7------------------7-----7-----7---------------|
----------------------------------------------------------------------------|
----------------------------------------------------------------------------|

        Am           G                 Am           G             F
---------------------------------------------------------------------------|
---------------------------------------------------------------------------|
--------5----7-----7-----7-----7-----9-----7-----7------5------------------|
--7------------------------------------------------------------------------|
---------------------------------------------------------------------------|
---------------------------------------------------------------------------|

Am     G       Am     G               Am    G    F
  Oh  I see all those riddles in your eyes
Makin' me so sick when I have to leave your side
Your school girl voice is the perfect place to hide
Your little sacrifices...

F        G      Am              G
  Oh no, oh no, why do you let me go
When the first word from your mouth was no
I stayed and played your game until you came around
Today is the day that you lock me out

 Am       G         Am     G         Am     G      F
  Oh you fooled me about a thousand times
Convincing me that I'm just a city rat sneaking around at night
And I'm so lucky that you're the cat to finally take my life
I'm just your sacrifice

F        G      Am                G
  Oh no, oh no, why do you let me go
When the first word from your mouth was no
I stayed and played your game until you came around
Today is the day that you locked me out


Guitar Solo: (Verse chord progression played during solo)

------------------------------------------------------------------------|
------------------------------------------------------------------------|
----------------------------------------------------5--------5--7---5---|
----------------------------------5-------5----7---------7--------------|
--5-----------------------------------5---------------------------------|
------0---3---5---5-------0---3-----------------------------------------|

--------------------------------------------------------------------------|
--------------------------------------------------8----10---10---------8--|
---7---9---9---7---5----5----7----7-----7----9-------------------9--------|
--------------------------------------------------------------------------|
--------------------------------------------------------------------------|
--------------------------------------------------------------------------|

--------------------------------------------------------------------------|
--10----10----10----8-------8-------------------------8---10--------8--10-|
------------------------9-------9-----7-----5-----9------------9----------|
--------------------------------------------------------------------------|
--------------------------------------------------------------------------|
--------------------------------------------------------------------------|


Keyboard Solo:

------------------------------------------------------------------------|
--10--------8---------5-------------------------------------------------|
-------9--------7---------5-----7---------------------------------------|
-------------------------------------7-----5-----7-----------------5----|
------------------------------------------------------7------7----------|
------------------------------------------------------------------------|


-------------------------------------------------8--------------------|
------------------------------10---10---8---10-------10---8---10------|
------------------------------9----9----7----9---------------------9--|
-7---9---10---9---7---9---9-------------------------------------------|
----------------------------------------------------------------------|
----------------------------------------------------------------------|

F        G      Am               G
  Oh no, oh no why do you let me go
When the first word from your mouth was no
I stayed and played your game until you came around
Today is the day that you locked me out

F       G      Am                   G
  Oh no oh no, just look what I've become
Oil stain on a white dove.
Oh no, I may never make you clean
Girl just take a look at me

F      G     Am   G
Oh no, oh no
Oh no, oh no....
Oh no
Oh no


Guitar Outro repeated during last Chorus parts:

------------------------------------------------------------12----|
--10----12---13----12-----10-------10----12----13----12-----------|
---9-------------------------------9------9-----------------------|
------------------------------------------------------------------|
------------------------------------------------------------------|
------------------------------------------------------------------|


--------12---------------10---------------8--------------7--------|
---10--------10-----8---------8------10-------10-----8---------8--|
------------------------------------------------------------------|
------------------------------------------------------------------|
------------------------------------------------------------------|
------------------------------------------------------------------|
Tap to rate this tab
# A B C D E F G H I J K L M N O P Q R S T U V W X Y Z