Song name
# A B C D E F G H I J K L M N O P Q R S T U V W X Y Z

Minus The Bear - Monkey Knife Fight tab

Tabbed by:coheedandnofx6
AIM: Warxall0thextime

Tuning: Standard

Weeee very fun solo. Also the lead guitar has some kinda funky effects on the
chorus so im not sure about if its right or not, but it sounds good to me. Have fun...

                ::INTRO::
   Rythym Guitar
e|---------------------------------------|
B|---------------------------------------|
G|---------------------------------------|
D|---3-3--3-3--3-3--3-3--5-5--3-3--------|
A|---------------------------------------|
E|---------------------------------------|
    Lead Guitar
e|---------------------------------------|
B|---------------------------------------|
G|---5-5-6/11-11~---7-7-6/4-4~-----------|
D|---------------------------------------|
A|---------------------------------------|
E|---------------------------------------|
               ::CHORUS::
    Lead Guitar
e|---------------------------------------|
B|---18----------15-------17-------------|
G|------17-15-17----17-15----------------|
D|---------------------------------------|
A|---------------------------------------|
E|---------------------------------------|
   Rythym Guitar
e|---------------------------------------|
B|---------------------------------------|
G|---5-5-6/11-11~---7-7-6/4-4~-----------|
D|---------------------------------------|
A|---------------------------------------|
E|---------------------------------------|
              ::POST CHORUS::

e|--------------------------------------------|
B|--------------------------------------------|
G|-------6-6---6---6-6-------6-6---6---6-6----|
D|---0-0-----0---0-----0-4-4-----4---4--------|
A|--------------------------------------------|
E|--------------------------------------------|
                 ::SOLO::

e|--------------------------------------------|
B|--------------------------------------------|
G|---18p16----16-18----16-18----18p16---------|
D|---------19-------19-------19-------19------|
A|--------------------------------------------|
E|--------------------------------------------|

PLEASE RATE
Tap to rate this tab
# A B C D E F G H I J K L M N O P Q R S T U V W X Y Z