Song name
# A B C D E F G H I J K L M N O P Q R S T U V W X Y Z

Minus The Bear - Hey Wanna Throw Up tab

Song: Hey wanna Throw Up?
CD: Highly Refined Pirates
Artist:Minus the Bear

NOT TO BE CONFUSED WITH Hey Wanna Throw Up? Get Me Naked from
their earlier EP This is What I Know About Being Giant.

This song is also a riff in Get Me Naked 2: Electric Boogaloo From Highly Refined Pirates

Don't let the reverb on guitar 1 fool you, this song is actually very simple.
I just pulled the balance left or right and you can hear either guitar very clearly.


Guitar 1 (balance left) Dave Knudson

(slide down the held chord)
|------7---\-5----------0-------3---------3-|
|---5----5-\---3----3/5----5----1---------1-|
|----------------------------0--0-----0---0-|
|-------------------------------x---5-----x-|
|-7--------\-----5--------------3---------3-|
|-------------------------------------------|

Guitar 2 (balance right) Jake Snider

|------------------------------------|
|-----------------------12*------12*-|
|--------------7p4---5--12*---5--12*-|
|----5h7--7/9-----------12*------12*-|
|-7----------------------------------|
|------------------------------------|

*=natural harmonic
Tap to rate this tab
# A B C D E F G H I J K L M N O P Q R S T U V W X Y Z