Guitaretab - guitar tabs
Song name
# A B C D E F G H I J K L M N O P Q R S T U V W X Y Z

Minus The Bear - Memphis And 53rd tab

Artist: Minus The Bear
-Album: Menos El Oso (s/t)
--Song: Memphis & 53rd
---Tab: #7

Transcribed by Exo M7.

For questions/comments/tab requests, the email is jd0922[at]yahoo[dot]com.

Strumming pattern not exactly indicated on verse rhythm parts.
Use a mostly clean sound with delay and reverb.

Drop D Tuning (D A D G B E, low to high)

====================================

Intro

Guitar 1 - Delayed Rhythm
1st:-------------------------------------------------------------------|
2nd:-------------------------------------------------------------------|
3rd:-------------------------------------------------------------------|
4th:-5~------------------------------0~--------------------------------|
5th:-5~------------------------------0~--------------------------------|
6th:-5~------------------------------0~--------------------------------|

Guitar 2 - Delay
1st:----------------------------------------13-15-13-15---13-15-13-17--|
2nd:-------------------------------------------------------------------|
3rd:-------------------------------------------------------------------|
4th:-------------------------------------------------------------------|
5th:-------------------------------------------------------------------|
6th:-------------------------------------------------------------------| x2

---

Guitar 3 - Main Theme
1st:-------------------------|
2nd:----------8----8-8h10-8--|
3rd:-7-7-9-10---10-----------|
4th:-------------------------|
5th:-------------------------|
6th:-------------------------| x2

---

Guitar 3
1st:--------------------------------|
2nd:----------8----8~---------------|
3rd:-7-7-9-10---10~-----------------|
4th:--------------------------------|
5th:--------------------------------|
6th:--------------------------------|

Guitar 1
1st:--------------------------------|
2nd:-10-10~--8-8~-------------------|
3rd:---------------10-10~-----------|
4th:-----------------------7-7-5-5--|
5th:--------------------------------|
6th:--------------------------------|

====================================

Verse 1

Guitar 4 - Clean Rhythm
1st:--------------------|
2nd:--------------------|
3rd:-3-3-5-5-3-5-3-7-5--|
4th:-5-5-5-5-5-5-5-5-5--|
5th:--------------------|
6th:--------------------| x3

Guitar 3
1st:-------------------------|
2nd:----------8----8-8h10-8--|
3rd:-7-7-9-10---10-----------|
4th:-------------------------|
5th:-------------------------|
6th:-------------------------| x3

---

Guitar 1
1st:--------------------------------|
2nd:-10-10~--8-8~-------------------|
3rd:---------------10-10~-----------|
4th:-----------------------7-7-5-5--|
5th:--------------------------------|
6th:--------------------------------|

Guitar 3
1st:---------------------------|
2nd:---------------8-8-10-10~--|
3rd:-7-7-9-9-10-10-------------|
4th:---------------------------|
5th:---------------------------|
6th:---------------------------|

---

Guitar 4
1st:--------------------|
2nd:--------------------|
3rd:-3-3-5-5-3-5-3-7-5--|
4th:-5-5-5-5-5-5-5-5-5--|
5th:--------------------|
6th:--------------------| x3

Guitar 3
1st:-------------------------|
2nd:----------8----8-8h10-8--|
3rd:-7-7-9-10---10-----------|
4th:-------------------------|
5th:-------------------------|
6th:-------------------------| x3

---

Guitar 4
1st:----------------------|
2nd:----------------------|
3rd:---3---3---5---5---7--|
4th:-5---5---5---5---5----|
5th:----------------------|
6th:----------------------|

Guitar 3
1st:----------------------|
2nd:----------8----8~-----|
3rd:-7-7-9-10---10~-------|
4th:----------------------|
5th:----------------------|
6th:----------------------|

====================================

Chorus 1

Guitar 1
1st:-----------|
2nd:-----------|
3rd:-----------|
4th:-5-5-5-----|
5th:-5-5-5...--|
6th:-5---------|
(delay)

Guitar 1
1st:--------------------------|
2nd:-----8~----10~---8-10-10--|
3rd:-----7~-------------------|
4th:-0------------------------|
5th:-0------------------------|
6th:--------------------------| x3

====================================

Bridge 1

Guitar 2
1st:-------------15----15-17-15--|
2nd:-15-15-17-18----18-----------|
3rd:-----------------------------|
4th:-----------------------------|
5th:-----------------------------|
6th:-----------------------------| x4

Guitar 1 (every time)
1st:-----
2nd:-8~--
3rd:-7~--
4th:-----|
5th:-----|
6th:-----|

Guitar 3 (third time)
1st:-----|
2nd:-10--|
3rd:-----|
4th:-----|
5th:-----|
6th:-----|

====================================

Verse 2

Guitar 4
1st:--------------------|
2nd:--------------------|
3rd:-3-3-5-5-3-5-3-7-5--|
4th:-5-5-5-5-5-5-5-5-5--|
5th:--------------------|
6th:--------------------| x4

Guitar 3
1st:-------------------------|
2nd:----------8----8-8h10-8--|
3rd:-7-7-9-10---10-----------|
4th:-------------------------|
5th:-------------------------|
6th:-------------------------| x4

---

Guitar 4
1st:-------------------------|
2nd:-------------------------|
3rd:-3-3-5-3-5---------------|
4th:-5-5-5-5-5---------------|
5th:-5-5-5-5-5---------------|
6th:-------------------------|

Guitar 3
1st:-------------------------|
2nd:----------8----8-8h10-8--|
3rd:-7-7-9-10---10-----------|
4th:-------------------------|
5th:-------------------------|
6th:-------------------------|

---

Guitar 4
1st:--------------------|
2nd:--------------------|
3rd:-3-3-5-5-3-5-3-7-5--|
4th:-5-5-5-5-5-5-5-5-5--|
5th:--------------------|
6th:--------------------| x2
[ Tab from: http://www.guitaretab.com/m/minus-the-bear/68747.html ]
Guitar 3
1st:-------------------------|
2nd:----------8----8-8h10-8--|
3rd:-7-7-9-10---10-----------|
4th:-------------------------|
5th:-------------------------|
6th:-------------------------| x2

---

Guitar 4
1st:---------------------5--|
2nd:------------------------|
3rd:---3---3---5---5---7----|
4th:-5---5---5---5---5------|
5th:------------------------|
6th:------------------------|

Guitar 3
1st:-------------------|
2nd:----------8----8~--|
3rd:-7-7-9-10---10~----|
4th:-------------------|
5th:-------------------|
6th:-------------------|

====================================

Chorus 2

Guitar 1
1st:-----------|
2nd:-----------|
3rd:-----------|
4th:-5-5-5-----|
5th:-5-5-5...--|
6th:-5---------|
(delay)

Guitar 1
1st:--------------------------|
2nd:-----8~----10~---8-10-10--|
3rd:-----7~-------------------|
4th:-0------------------------|
5th:-0------------------------|
6th:--------------------------| x2

====================================

Bridge 2

Guitar 1
1st:----------------------------------------------------------------------------|
2nd:-8------------------8------------------10-----------------8-----------------|
3rd:-7------------------7------------------9------------------7-----------------|
4th:----------------------------------------------------------------------------|
5th:----------------------------------------------------------------------------|
6th:----------------------------------------------------------------------------|

---

Guitar 2 (heavy delay)
1st:----------------------------------------------------------------------------|
2nd:-------15-17-18-------------15-17--------15-17-18-17-15-----15-17-18-17-15--|
3rd:----------------------------------------------------------------------------|
4th:----------------------------------------------------------------------------|
5th:----------------------------------------------------------------------------|
6th:----------------------------------------------------------------------------|

Guitar 1
1st:----------------------------------------------------------------------------|
2nd:-8------------------8------------------10-----------------8-----------------|
3rd:-7------------------7------------------9------------------7-----------------|
4th:----------------------------------------------------------------------------|
5th:----------------------------------------------------------------------------|
6th:----------------------------------------------------------------------------|

---

Guitar 2
1st:--------------15------------17-15------------------15------------1715-------|
2nd:-----15-17-18---------15-17-------17------15-17-18---------1517-------1817--|
3rd:----------------------------------------------------------------------------|
4th:----------------------------------------------------------------------------|
5th:----------------------------------------------------------------------------|
6th:----------------------------------------------------------------------------|

Guitar 1
1st:----------------------------------------------------------------------------|
2nd:-8------------------8------------------10-----------------8-----------------|
3rd:-7------------------7------------------9------------------7-----------------|
4th:----------------------------------------------------------------------------|
5th:----------------------------------------------------------------------------|
6th:----------------------------------------------------------------------------|

---

Guitar 2
1st:-------------15----15-17-15--|
2nd:-15-15-17-18----18-----------|
3rd:-----------------------------|
4th:-----------------------------|
5th:-----------------------------|
6th:-----------------------------| x2

---

Guitar 1
1st:--------------------------------|
2nd:-10-10~--8-8~-------------------|
3rd:---------------10-10~-----------|
4th:-----------------------7-7-5-5--|
5th:--------------------------------|
6th:--------------------------------|

Guitar 4 (distorted)
1st:--------------------------------|
2nd:--------------------------------|
3rd:--------------------------------|
4th:-7-7----5-5----3-3----7-7-5-5---|
5th:-7-7----5-5----3-3----7-7-5-5---|
6th:-7-7----5-5----3-3----7-7-5-5---|

====================================

Chorus 3

Guitar 4 (distorted) + Guitar 3 (clean)
1st:--------------------|
2nd:--------------------|
3rd:-3-3-5-5-3-5-3-7-5--|
4th:-5-5-5-5-5-5-5-5-5--|
5th:--------------------|
6th:--------------------| x3

---

Guitar 1
1st:--------------------------------|
2nd:-10-10~--8-8~-------------------|
3rd:---------------10-10~-----------|
4th:-----------------------7-7-5-5--|
5th:--------------------------------|
6th:--------------------------------|

Guitar 4 (distorted)
1st:--------------------------------|
2nd:--------------------------------|
3rd:--------------------------------|
4th:-7-7----5-5----3-3----7-7-5-5---|
5th:-7-7----5-5----3-3----7-7-5-5---|
6th:-7-7----5-5----3-3----7-7-5-5---|

---

Guitar 4 (distorted) + Guitar 3 (clean)
1st:--------------------|
2nd:--------------------|
3rd:-3-3-5-5-3-5-3-7-5--|
4th:-5-5-5-5-5-5-5-5-5--|
5th:--------------------|
6th:--------------------| x3

---

Guitar 1
1st:--------------------------------|
2nd:-10-10~--8-8~-------------------|
3rd:---------------10-10~-----------|
4th:-----------------------7-7-5-5~-|
5th:--------------------------------|
6th:--------------------------------|

Guitar 4 (distorted)
1st:--------------------------------|
2nd:--------------------------------|
3rd:--------------------------------|
4th:-7-7----5-5----3-3----7-7-5-5~--|
5th:-7-7----5-5----3-3----7-7-5-5~--|
6th:-7-7----5-5----3-3----7-7-5-5~--|

====================================
Related for Memphis And 53rd tab
Advertisement will be closed in 10 seconds