Guitaretab - guitar tabs
Song name
# A B C D E F G H I J K L M N O P Q R S T U V W X Y Z

Minus The Bear - Game Needed Me tab

|-5---8--5---8--12---12--10---10-| 
|--6--6---6--6---13--13---11--11-| 
|-----7------7-------14-------12-| 
|--------------------------------| 
|--------------------------------| 
|--------------------------------|

|-5---8--5---8-8/10-12---12--10---10-| 
|--6--6---6--6-------13--13---11--11-| 
|-----7------7-----------14-------12-| 
|------------------------------------| 
|------------------------------------| 
|------------------------------------|

The "whistling effect" is Dave swinging his whammy bar without pushing it at first, with gobs of delay.
[ Tab from: http://www.guitaretab.com/m/minus-the-bear/68861.html ]
|-12-12-15-12-12--10-10-13-10-10-| 
|-13-13-13-13-15--11-11-11-11-13-|
|-14-14-14-14-14--12-12-12-12-12-| Whammy is worked at times. 
|--------------------------------| 
|--------------------------------| 
|--------------------------------|

|-5-5-8-5-5--5-5-8-5-5--12-12-15-12-12--10-10-13-10-10-| 
|-6-6-6-6-8--6-6-6-6-8--13-13-13-13-15--11-11-11-11-13-| 
|/7-7-7-7-7--7-7-7-7-7--14-14-14-14-14--12-12-12-12-12-| 
|------------------------------------------------------| 
|------------------------------------------------------| 
|------------------------------------------------------|

Ends with:

|-12-12-15-12-12--10-10-13/-------------| 
|-13-13-13-13-15--11-11-11/-slide down--|
|-14-14-14-14-14--12-12-12/-------------| 
|---------------------------------------| 
|---------------------------------------| 
|---------------------------------------|
Related for Game Needed Me tab
Advertisement will be closed in 10 seconds