Song name
# A B C D E F G H I J K L M N O P Q R S T U V W X Y Z

Minus The Bear - I Lost All My Money At The Cock Fights tab

Band : Minus The Bear
Song : I Lost All My Money at the Cock Fights
Album: Highly Refined Pirates
Tabbed By: Calum (afirock74@hotmail.com)
Normal Tuning

x   - Palm Mute
b   - Bend
b~  - Bend Up Then Down
h   - Hammer-On Directly After Note Before

Intro Guitar 1:
e|---17---17---17---17----19--|
B|----------------------------|
G|-14---14---14---14----16----|
D|----------------------------|
A|----------------------------|
E|----------------------------|

Intro Guitar 2:
e|-------------7--|
B|----7--10p7--7--|
G|----7--9--------|
D|-7--x-----------|
A|-5--5-----------|
E|-3--7-----------|

e|---------------------|
B|----------0----------|
G|---------------------|
D|-7p0-----7-----------|
A|-9---7h9-----7--5----|
E|---------------------|

Verse:
e|----------------7--|
B|----------10p7--7--|
G|-7--9h11--9--------|
D|-9-----------------|
A|-------------------|
E|-------------------|

Chorus Guitar 1:
e|------|
B|-10---|
G|-11---| (repeated strumming)
D|-12---|
A|------|
E|------|

Chorus Guitar 2:
e|--10-10--------------10-10-----------------12-12-12--12---14--15--|
B|--------8-8-10-10-8--------8-8-10-10-8--10------------------------|
G|------------------------------------------------------------------|
D|------------------------------------------------------------------|
A|------------------------------------------------------------------|
E|------------------------------------------------------------------|

Bridge:
e|------------------|
B|-10---------------|
G|-9---7h9p7--------|
D|-0-0-------0-0-0--|
A|------------------|
E|------------------|
     x       x x x


Outro Guitar 1 Part 1:
e|-------------------|
B|-------------------|
G|---7---9--11b--9-7-|
D|-9-----------------|
A|-------------------|
E|-------------------|

Outro Guitar 1 Part 2:
e|----------|------------------|--------------------|---------------|
B|----------|------------------|--------------------|---------------|
G|----9-(x6)|-9-7---7----7-(2x)|----7-9-9-9-7-------|---------------|
D|-7h9------|-----9---7-9------|-7-9----------9-(2x)|-0-0-0---0-0-0-|
A|----------|------------------|--------------------|---------------|
E|----------|------------------|--------------------|---------------|
                                                      x x x   x x x

Outro Guitar 2:
e|-------------------------------------------------------------------------------------|
B|-------------------------------------------------------------------------------------|
G|-7-0--7-0--7-0--7-0--7-0--7-0--7-4--7-4--7-4--7-4--7-4--7-4--4-0--4-0--4-0--4-0--4-0-|
D|-------------------------------------------------------------------------------------|
A|-------------------------------------------------------------------------------------|
E|-------------------------------------------------------------------------------------|

...Outro Guitar 2:
e|--------------------|
B|--------------------|
G|--0--0--0--0--0--0--|
D|-2--2--2--2--2--2---|
A|--------------------|
E|--------------------|
Tap to rate this tab
# A B C D E F G H I J K L M N O P Q R S T U V W X Y Z