Guitaretab - guitar tabs
Song name
# A B C D E F G H I J K L M N O P Q R S T U V W X Y Z

Minus The Bear - Woman We Havent Met Yet tab

INTRO
|---------------------------------------------------------------------------|
|---------------------------------------------------------------------------|
|------------t17-------------t17-------t17-----------t14-----------t14------|
|---------------------------------------------------------------------------|
|------------t15-------------t15-------t15-----------t12-----------t12------|
|12/10\12/10-----12/10\12/10-----12/10-----10/7\10/7-----10/7\10/7-----10/7-|

|--------------------------------------------------------------------------|
|--------------------------------------------------------------------------|
|t14-----------------------------------------------------------------------|
|--------------------------------------------------------------------------|
|t12-----------------------------------------------------------------------|
|--------------------------------------------------------------------------|
repeat

Verse
|---------------------------------------------------------------------------|
|-----17p1-----------17p1-----------17p1------17p1-----------17p1-----------|
|17p2------17p2-17p2------17p2-17p2------14p2------14p2-14p2------14p2-14p2-|
|---------------------------------------------------------------------------|
|---------------------------------------------------------------------------|
|---------------------------------------------------------------------------|
[ Tab from: http://www.guitaretab.com/m/minus-the-bear/79254.html ]
|
|17p1------17p1------------17p1-----------17p1-----------17p1-----------17p1-|
|-----14p2------17p20-17p2------17p2-17p2------14p2-17p2------14p2-17p2------|
|----------------------------------------------------------------------------|
|----------------------------------------------------------------------------|
|----------------------------------------------------------------------------|

|-15p0-17p0----------------------------------------------------------------|
|--------------------------------------------------------------------------|
|--------------------------------------------------------------------------|
|--------------------------------------------------------------------------|
|--------------------------------------------------------------------------|
|--------------------------------------------------------------------------|


Chorus part 1(rhythm guitar)
|--------------------------------------------------------------------------|
|--------------------------------------------------------------------------|
|-5-777-5-5-777-5-5-77-55-222-5-5-222-5-5-22-55----------------------------|
|--------------------------------------------------------------------------|
|-3-555-3-3-555-3-3-55-33-000-3-3-000-3-3-00-33----------------------------|
|--------------------------------------------------------------------------|


Chorus oart 2(lead guitar played over-top rhythm guitar second time)
|
|--------------------------------------------------------------------------|
|12b14r12b14r12b14r12------------------------------------------------------|
|---------------------10~-12~----------------------------------------------|
|-----------------------------10~-12~~--------10~-12~----------------------|
|--------------------------------------10~-12~-----------------------------|

There are two other riffs that I am not sure about, but I may add them at a later time.

If you have any questions, either e-mail me at csfraven@coaxpa.com, or message me on
myspace:  www.myspace.com/metallicafan667
Related for Woman We Havent Met Yet tab
Advertisement will be closed in 10 seconds