Song name
# A B C D E F G H I J K L M N O P Q R S T U V W X Y Z

Minus The Bear - Get Me Naked 2 Electric Boogaloo tab

Get me Naked 2: Electric Boogaloo

|---|
|---|
|---|
|-9-|
|-7-|
|-8-| Hold this chord while playing the intro

Intro
|--------------------------------------------------------------------------|
|--------------------------------------------------------------------------|
|--------------------------------------------------------------------------|
|------------------t16-----------------------------------------------------|
|--------t17p7-------------------------------------------------------------|
|t19-t19-------t19---------------------------------------------------------|

Intro 2(rhythm guitar)
|--------------------------------------------------------------------------|
|--------------------------------------------------------------------------|
|--------------------------------------------------------------------------|
|5h7~-----5h7~-------------------------------------------------------------|
|----5h7~~----5h7~~--------------------------------------------------------|
|--------------------------------------------------------------------------|

Bridge(same riff as Hey Wanna Throw Up, just plyed a little faster)
|---------7p0---------5p0-----0---------0------------0------------0-------|
|-----8-------8---3h5-----3h5-----------0------------0------------0-------|
|-------9-------9-------------------0---0--------0---0--------0---0-------|
|---9-----------------------------2---2-2------2---2-2------2---2-2------2|
|-7-----------------------------3-------3----3-------3----3-------3----3--|
|-------------------------------------------------------------------------|

|-------------------------------------------------------------------------|
|-----12------------------------------------------------------------------|
|-0---12------------------------------------------------------------------|
|---2-12------------------------------------------------------------------|
|-------------------------------------------------------------------------|
|-------------------------------------------------------------------------|

Verse(hold an E power chord during this riff)
|----------------------------------------------------------------------------|
|----------------------------------------------------------------------------|
|------------------t16-----------------------------------------t16-----------|
|----------------------------------------t16-------t17p5-----------------t17-|
|t17p7-t19p7-t17p7-----t17p5-t19p5-t17p5-----t17p3-------t17p3-----t17p3-----|
|----------------------------------------------------------------------------|

|--------------------------------------------------------------------------|
|--------------------------------------------------------------------------|
|--------------------------------------------------------------------------|
|p5------------------------------------------------------------------------|
|---17p3-t19p3-------------------------------------------------------------|
|--------------------------------------------------------------------------|


Chorus
|--------------------------------------------------------------------------|
|--------------------------------------------------------------------------|
|--------------------------------------------------------------------------|
|------------------t16-----------------------------------------------------|
|--------t17p7-------------------------------------------------------------|
|t19-t19-------t19---------------------------------------------------------|

While holding
|---|
|---|
|---|
|-9-|
|-7-|
|-8-|


Plat this chord a few times for the bridge
|---|
|8--|
|9--|
|10-|
|10-|
|---|


Bridge
|10--10/12--77--10--10/12--77------------------------------------------|
|10--10/12--88--10--10/12--88------------------------------------------|
|----------------------------------------------------------------------|
|----------------------------------------------------------------------|
|----------------------------------------------------------------------|
|----------------------------------------------------------------------|


Interlude
|121212--777--101010--555----------------------------------------------|
|121212--888--101010--555----------------------------------------------|
|----------------------------------------------------------------------|
|----------------------------------------------------------------------|
|----------------------------------------------------------------------|
|----------------------------------------------------------------------|


That is it.  Feel free to e-mail me or message me on myspace at 
 I hope you enjoy this tab.
Tap to rate this tab
 
# A B C D E F G H I J K L M N O P Q R S T U V W X Y Z