Song name
# A B C D E F G H I J K L M N O P Q R S T U V W X Y Z

Minus The Bear - Pony Up tab

-------------------------------------------------------------------------------
			     PONY UP - Minus The Bear
-------------------------------------------------------------------------------
Tabbed by:
Email:

Tuning: Standard

(Plays throughout most of the song)
e|---------------------------------------------------------------------------|
B|---------------------------------------------------------------------------|
G|---------------------------------------------------------------------------|
D|---------------------------------------------------------------------------|
A|-5-5h7---5-5-7---5-5-7---5-5-7---------------------------------------------|
E|---------------------------------------------------------------------------|

...your eyes move me like the nightfall
e|-7-7-7-7--10--10-10-10--12-12-12-12--9-9-9-9-------------------------------|
B|---------------------------------------------------------------------------|
G|---------------------------------------------------------------------------|
D|---------------------------------------------------------------------------|
A|---------------------------------------------------------------------------|
E|---------------------------------------------------------------------------|

e|-5------------------------5------------------5-----------------------------|
B|---5-7------3/5-5--7-------5-7------3/5-5--7-------------------------------|
G|---------------------------------------------------------------------------|
D|---------------------------------------------------------------------------|
A|---------------------------------------------------------------------------|
E|---------------------------------------------------------------------------|
Tap to rate this tab
 
# A B C D E F G H I J K L M N O P Q R S T U V W X Y Z