Song name
# A B C D E F G H I J K L M N O P Q R S T U V W X Y Z

Minus The Bear - Michios Death Drive tab

|----------14--------------12--------|
|-12-12-----------12-12--------------|
|-------14----14--------14----14-----|
|------------------------------------|
|------------------------------------|
|------------------------------------|

|------------------------------------|
|------------------------------------|
|---4-4---4-4---4-4---4-4---4--4-----|
|-2-----4-----0----------------------| palm mute for verse.
|-------------------4-----2---0------|
|------------------------------------|
Tap to rate this tab
# A B C D E F G H I J K L M N O P Q R S T U V W X Y Z