Song name
# A B C D E F G H I J K L M N O P Q R S T U V W X Y Z

Minus The Bear - We Are Not A Football Team tab

Intro/Verse (no where near 100%)
Numbers in brackets are harmonics (lightly touch string and pluck)
|-------------------------------|
|-7-p5----------15/12-----------|
|---------(7)---------(12)------|
|---------(7)-------------(12)--| a few times.
|-5---h7--------12/10-----------|
|-------------------------------|

End with
|-------------------------------|
|-7-p5-----------5--------------|
|---------(7)--7---7------------|
|---------(7)------7------------|
|-5---h7------------------------|
|-------------------------------|

Chorus
|----------------------------------|
|-7/8--15/12--12/19--19/15--15-15--|
|----------------------------------|
|----------------------------------|
|-5/7--12/10--10/17--17/12--12-12--|
|----------------------------------|

Tap to rate this tab
 
# A B C D E F G H I J K L M N O P Q R S T U V W X Y Z