Song name
# A B C D E F G H I J K L M N O P Q R S T U V W X Y Z

Minus The Bear - Planet Of Ice tab

Dave (Acoustic)
|-------2-------2-------2--------2-|
|-------3-------3-------3--------3-|
|-------4-------4-------4--------4-|
|-----4-------4-------4--------4---|
|-2-2-----2-2-----2-2------2-2-----|
|----------------------------------|

|-------5-------5-------3--------3-|
|-------3-------3-------2--------2-|
|-------2-------2-------2--------2-|
|-----4-------4-------4--------4---|
|-2-2-----2-2-----2-2------2-2-----|
|----------------------------------|

|-------2-------2-------2--------2-|
|-------3-------3-------3--------3-|
|-------4-------4-------4--------4-|
|-----4-------4-------4--------4---|
|-2-2-----2-2-----2-2------2-2-----|
|----------------------------------|

|---0------0-------0-------2-------2-|
|---0------0-------0-------0-------0-|
|----------4-------4-------0-------0-|
|----------4-------4-----4-------4---|
|-2------4-------4-------------------|
|------2-----2-2-----2-3-----3-3-----|

|-------2-------2-------2--------2-|
|-------3-------3-------3--------3-|
|-------4-------4-------4--------4-|
|-----4-------4-------4--------4---|
|-2-2-----2-2-----2-2------2-2-----|
|----------------------------------|

|---0------0-------0-------2-------2-|
|---0------0-------0-------0-------0-|
|----------4-------4-------0-------0-|
|----------4-------4-----4-------4---|
|-2------4-------4-------------------|
|------2-----2-2-----2-3-----3-3-----|

Continued

Dave strums these chords, listen for timing.

  Bm F# G/B
|-2--0--2-|
|-3--0--0-|
|-4--4--0-|
|-4--4--4-|
|-2--4----|
|----2--3-|

Jake plays this overtop each chord change (all slow bends):
Bm          F#         G/B           Bm
|------------------------------------------|
|------------------------------------------|
|-14^16~~----------------------------14^16-|
|-----------14^16~~-----14h16~~------------|
|-------------------------------16~--------|
|------------------------------------------|

F#         G/B           Bm
|----------------------------|
|-15^17----------------------|
|----------------------------|
|-----------14^16~~^14----14-|
|----------------------------|
|----------------------------|
                   |--bend back down  


Tap to rate this tab
 
# A B C D E F G H I J K L M N O P Q R S T U V W X Y Z