Song name
# A B C D E F G H I J K L M N O P Q R S T U V W X Y Z

Minus The Bear - Lemurs Man Lemurs tab

Dave
Intro/Verse

Shape 1:
|----| 
|----| 
|----|
|-5--| 
|-3--| 
|-5--|

Shape 2:
|----| 
|----| 
|----|
|-7--| 
|-5--| 
|-7--|

While holding Shape 1, tap:
|------------------------------------|
|------------------------------------|
|------------------------------------|
|-12p----12-12-12p------12p----------|
|----12p----------12p----------------|
|--------------------12p-------------|

|------------------------------------|
|------------------------------------|
|------------------------------------|
|-12p----12-12-12/10p-10------12-----|
|----12p----------------10/12p-------|
|------------------------------------|


Slide left hand up to shape 2.

|--------------------------------------|
|--------------------------------------|
|--------------------------------------|
|-14p------14-14-14p--------14p--------|
|----15p-------------15p---------------|
|------------------------14p-----------|

|--------------------------------------|
|--------------------------------------|
|--------------------------------------|
|-14p------14-14-14p-----15------------|
|----15p-------------15p---------------|
|--------------------------------------|

Then:

|--------------------------------------|
|--------------------------------------|
|-5-5-5--7-7-7--12-12-12-12-12-12------|
|-3-3-3--5-5-5--10-10-10-10-10-10------|
|-3-3-3--5-5-5--10-10-10-10-10-10-etc.-|
|-3-3-3--5-5-5--10-10-10-10-10-10------|

Back to verse
Then this again:                    End on (stash your pick)
|----------------------------------|---|
|----------------------------------|---|
|-5-5-5--7-7-7--12-12-12-12-12-12--|-7-|
|-3-3-3--5-5-5--10-10-10-10-10-10--|-5-|
|-3-3-3--5-5-5--10-10-10-10-10-10--|-5-|
|-3-3-3--5-5-5--10-10-10-10-10-10--|-5-|




Totally down with this tapped bridge... 
Hold shape 1 from verse:
|---------------------------------------------------------------|
|---------------------------------------------------------------|
|-17---------------17--------------17-----------17--------------|
|----17--14/15-17-----17--14/15-17----14/15-17-----17--14/15-17-|
|---------------------------------------------------------------|
|---------------------------------------------------------------|

Then:
|---------------------------------------------------------------------|
|-17----17-----17---17----17-----17-----------------------------------|
|----17----17----------17----17------19-17-19-17--19--19-17-19-17--19-|
|---------------------------------------------------------------------|
|---------------------------------------------------------------------|
|---------------------------------------------------------------------|

Now, I like to do something different halfway through the bridge...
The bass accompanies Dave... 
but I like to just hammer the chords with my left hand while I tap the bridge:
(this may look messy, same as above bridge part, with bass behind it.)

|---------------------------------------------------------------|
|---------------------------------------------------------------|
|-17---------------17--------------17-----------17--------------|
|-3--17--14/15-17--5--17--14/15-17-7--14/15-17--10-17--14/15-17-|
|-3----------------5---------------7------------10--------------|
|-3----------------5---------------7------------10--------------|

Then:
|---------------------------------------------------------------------|
|-17----17-----17---17----17-----17-----------------------------------|
|----17----17----------17----17------19-17-19-17--19--19-17-19-17--19-|
|-3-----------------5----------------7----------------10--------------|
|-3-----------------5----------------7----------------10--------------|
|-3-----------------5----------------7----------------10--------------|

Sounds awesome.. looks impressive...

After that:

|-------------------------------------------------|
|-------------------------------------------------|
|-------------------------------------------------|
|-12-12-14-14-12-12-14-14-12-12-14-14-12-12-14-14-|
|-12-12-12-12-12-12-12-12-12-12-12-12-12-12-12-12-|
|-12-12-12-12-12-12-12-12-12-12-12-12-12-12-12-12-|

|-------------------------------------------------|
|-------------------------------------------------|
|-------------------------------------------------|
|-15-15-17-17-15-15-17-17-15-15-17-17-15-15-17-17-|
|-15-15-15-15-15-15-15-15-15-15-15-15-15-15-15-15-|
|-15-15-15-15-15-15-15-15-15-15-15-15-15-15-15-15-|

|---------------------------------|
|---------------------------------|
|---------------------------------|
|-5-5-7-7-5-5-7-7-5-5-7-7-5-5-7-7-|
|-5-5-5-5-5-5-5-5-5-5-5-5-5-5-5-5-|
|-5-5-5-5-5-5-5-5-5-5-5-5-5-5-5-5-|

End with:
|-----------------|---|
|-----------------|---|
|-----------------|---|
|-3-5-3-5-3-5-3-5-|-3-|
|-3-5-3-5-3-5-3-5-|-3-|
|-3-5-3-5-3-5-3-5-|-3-|

Tap to rate this tab
 
# A B C D E F G H I J K L M N O P Q R S T U V W X Y Z