Song name
# A B C D E F G H I J K L M N O P Q R S T U V W X Y Z

Minus The Bear - Pantsuit Uggghhh tab

|-------------------------|
|-------------------------|
|----9-------/12--17------|
|---9---14p9-/12--17------|
|--7---------/10----------|
|-7-----14p7-/10----------|

Then mess around with these chords, little tapped accents in there... cant remember where.
|----------------------------------|
|----------------------------------|
|-9-9-9-9-12-12-12-9-9-9-9-5-5-5-5-|
|-9-9-9-9-12-12-12-9-9-9-9-5-5-5-5-|
|-7-7-7-7-10-10-10-7-7-7-7-3-3-3-3-|
|-7-7-7-7-10-10-10-7-7-7-7-3-3-3-3-|

Then
|-------------|
|-------------|
|-5-5-5/7-7/9-|
|-3-3-3/5-5/7-| a few times.
|-3-3-3/5-5/7-|
|-3-3-3/5-5/7-|

|-----------------------------------------|
|-----------------------------------------|
|-5-5-/-7-7-/-9-9-/-11-11-/-12------------|
|-3-3-/-5-5-/-7-7-/-9--9--/-10--17/19p10~-|
|-3-3-/-5-5-/-7-7-/-9--9--/-10------------|
|-3-3-/-5-5-/-7-7-/-9--9--/-10--17/19p10~-|

|------------------------------------------|
|------------------------------------------|
|-5-5-/-7-7-/-9-9-/-11-11-/-12-----------9-|
|-3-3-/-5-5-/-7-7-/-9--9--/-10--19/17p12-7-|
|-3-3-/-5-5-/-7-7-/-9--9--/-10-----------7-|
|-3-3-/-5-5-/-7-7-/-9--9--/-10--19/17p12-7-|

Then the cool part.

               |Repeat from here.  
|------------------------------|
|------------------------------|
|------------------------------|
|-17p3---17p3--17p3-17p3--17p3-|
|------------------------------| repeat a lot...
|-17p3---17p3--17p3-17p3--17p3-|

then
|-----------------------------------|
|-----------------------------------|
|-----------------------------------|
|-17p3--17p3--17p3-17p3--17p3--17p3-|
|-----------------------------------|
|-17p3--17p3--17p3-17p3--17p3--17p3-|

|------------------------------------|
|------------------------------------|
|------------------------------------|
|-12p3--12p3--12p3--14p3--14p3--14p3-|
|------------------------------------|
|-12p3--12p3--12p3--14p3--14p3--14p3-| repeat.

The next part I haven't noodled out yet.
Tap to rate this tab
 
# A B C D E F G H I J K L M N O P Q R S T U V W X Y Z