Song name
# A B C D E F G H I J K L M N O P Q R S T U V W X Y Z

Minus The Bear - Dr Lling tab

Intro
           |---Starts here.
|----------------|
|----------------|
|----------------|
|-9--9--9--9-7-9-|
|-9--9--9--9-7-9-| Chords/Bass that go over the verse. 
|-9--9--9--9-7-9-| Omit 7th fret chord at times.

Along with above chords:
|------------------|
|------------------|
|------------10^~~-|
|-9--9--9--9-------| x4
|------------------|
|------------------|

Verse Part 1 (Both chords and accomp. together, most likely seperate.)

|---------------------------------------------------|
|---------------------------------------------------|
|-----10^--10^--10^--10^-----10^^-10-10-10-10-9-9-7-|
|-9-9--------------------9-9------------------------|
|-9-9--------------------9-9------------------------|
|-9-9--------------------9-9------------------------|

|---------------------13^^----------------------|
|-----12^-12^-12^-12^-----------15^-15^-15^-15^-|
|-----------------------------------------------|
|-9-9----------------------9-9------------------|
|-9-9----------------------9-9------------------|
|-9-9----------------------9-9------------------|

|-----------------------------------------------------13-|
|--------------------------------------------------------|
|-----10^^-10-10-10-10-9-9-7-----10^-10-10-10-10-9-10----|
|-9-9------------------------9-9-------------------------|
|-9-9------------------------9-9-------------------------|
|-9-9------------------------9-9-------------------------|

|---------------------13^^----------------------|
|-----12^-12^-12^-12^-----------15^-15^-15^-15^-|
|-----------------------------------------------|
|-9-9----------------------9-9------------------|
|-9-9----------------------9-9------------------|
|-9-9----------------------9-9------------------|





Verse Part 2
"Becoming a casual business man..."
|-----------------|               |-12^-|
|-12--9h10p9----9-|               |-----|
|-11-11------11-9-|               |-----|
|--9--9-------9-9-| Fluid repeat. |-----| after 2nd repeat.
|-----------------|               |-----|
|-----------------|               |-----|

Back to verse (Will tab later)

Bridge 1 (Only figured out one guitar for now.)
2:10 - Break out your chopsticks.
|----------------------------------------------|
|----------------------------------------------|
|-14-16-14----14-------------------------------|
|----------16----16-14-16-14----14-------------| x2
|----------------------------17----17-16-17-14-|
|----------------------------------------------|

Back up
|----------------------------------------------|
|----------------------------------------------|
|----------------------------------14----14-16-|
|----------------14----14-16-14-16----16-------| x2
|-14-16-17-16-17----17-------------------------|
|----------------------------------------------|

|----------------------------------------------|
|----------------------------------------------|
|-12-14-12----12-------------------------------|
|----------14----14-12-14-12----12-------------| x2
|----------------------------15----15-14-15-12-|
|----------------------------------------------|

Back up
|----------------------------------------------|
|----------------------------------------------|
|----------------------------------12----12-14-|
|----------------12----12-14-12-14----14-------| x2
|-12-14-15-14-15----15-------------------------|
|----------------------------------------------|


|-------------------------------------|
|-------------------------------------|
|-9-11-9----9-------------------------|
|--------11---11-9-11----9------------| x2
|---------------------12---12-11-12-9-|
|-------------------------------------|



You get the picture...
|----------------------------------------|
|----------------------------------------|
|------------------------------9----9-11-|
|---------------9----9-11-9-11---11------| x2
|-9-11-12-11-12---12---------------------|
|----------------------------------------|
Tap to rate this tab
# A B C D E F G H I J K L M N O P Q R S T U V W X Y Z