Song name
# A B C D E F G H I J K L M N O P Q R S T U V W X Y Z

Minus The Bear - Electric Rainbow tab

Pretty sure jake hits the B on the big slams in the intro

Dave's Intro w/delay
|-----------------------------------------------|
|--------------14-------------------------------|
|---16--16-16-------2/4-2/4---------------------| x3
|-----------------------------------------------|
|-----------------------------------------------|
|-----------------------------------------------|

|-----------------------------------------------|
|-----------------------12----------------------|
|--2/4--2-2--7-7--9-9--11-----------------------|
|-----------------------9-----------------------| OR
|-----------------------------------------------|
|-----------------------------------------------|
I think there might be a low part and could either be divied between the guitars or 
like this (in drop D)
|-----------------------------------------------|
|----------------------12-----------------------|
|------------7-7--9-9--11-----------------------|
|--7/9--7-7--7-7--9-9--9------------------------|
|--7/9--7-7--5-5--7-7--9------------------------|
|--7/9--7-7------------(7)----------------------|


Dave's verse, w/ delay
|--14----14-------------------------------------|
|-----15----15--14------------------------------|
|-------------------16--14----------------------|
|---------------------------16------------------|
|-----------------------------------------------|
|-----------------------------------------------|
does that thrice, and on the four time, does the first 4 and then something high i can't 
out because my guitar only has barely 21 frets (sad face)

Jake's verse
|------------------------------------------------|
|------------------------------------------------|
|--7---9--7------}-----7--9--7-----7---7-7-------|
|--4---9--7--9~--} x3--4--9--7--9--7-9-7-7-------|
|------------9~--}--------------9----9-----------|
|------------------------------------------------|


1st chorus
|------------------------------------------------------------------|
|------------------------------------------------------------------|
|-----------------6/7-9/11-11/16-----------------6/7-9/11-11/16----| x2
|---4-0-(0)-0h4/5--------------------4-0-(0)-0h4/5-----------------|
|-2-----5-------------------------2------4-------------------------|
|------------------------------------------------------------------|
on second time, dave just goes from the first slide and ends like this
|-0h4/5/9~~~---------------------------------------------|
On 2nd chorus, ends the fourth time like
|-----------xxxxxxxx------------------|
|-----------xxxxxxxx------------------|
|-----------xxxxxxxx------------------|
|---4-0-(0)-0xxxxxxxx-----------------|
|-2-----4---xxxxxxxx------------------|
|-----------xxxxxxxx------------------|


Bridge
there's a hammer on the A from 4h5, and then an open striking of most of the strings before
|--------------------------}------------------11-11------|
|----------------14/15\14--}-x3--------------14b-14b-----|
|---11-12-11-12-----------}-----11-12-11-12--------------|
|--------------------------------------------------------|
|--------------------------------------------------------|
|--------------------------------------------------------|
as Jake keeps playing D chord over and over
"Risin'!"
|------------------------------------|
|------------------------------------|
|------------------------------------|
|--9-9-9-7-----0~---9-9-9-7-----0~---|
|--9-9-9-9b10--0~---9-9-9-9b10--0~---|
|--9-9-9-9-----0~---9-9-9-9-----0~---|
Then
|--------------------------}------------------11-12--13-----|
|----------------14/15\14--}-x3--------------14b-15b-17b----|
|---11-12-11-12-----------}-----11-12-11-12-----------------|
|-----------------------------------------------------------|
|-----------------------------------------------------------|
|-----------------------------------------------------------|
"Again!"
|------------------------------------|
|------------------------------------|
|------------------------------------|
|--9-9-9-7-----0~---9-9-9-7-----0~---|
|--9-9-9-9b10--0~---9-9-9-9b10--0~---|
|--9-9-9-9-----0~---9-9-9-9-----0~---|
One guitar does
|-7---7----7----------7---7---7--/12--12--12------|
|-10b-10b-10b-7------10b-10b-10b/15b-15b-15b------|
|--------------9b10-------------------------------|
|-------------------0~----------------------------|
|-------------------0~----------------------------|
|-------------------0~----------------------------|

Other (jake's?)
|-----15------------------15-------------|
|-12----12---9---8-----12----12---9---8--|
|-15b---15b-12b-11b---15b---15b-12b-11b--|
|----------------------------------------|
|----------------------------------------|
|----------------------------------------|
Then back to
|--------------------------}--------------------------------|
|----------------14/15\14--}-x3--------------14/15\14/15~---|
|---11-12-11-12-----------}-----11-12-11-12-----------------|
|-----------------------------------------------------------|
|-----------------------------------------------------------|
|-----------------------------------------------------------|

Outro
Dave
|-----------------------------------------------------------|
|------------------------}----------------------------------|
|-16--16-16/18----------}------16/18--12-12--19-19/21-------|
|--x---x--x/-x--7/9-7/9-}--x3---x/x----x--x---x---x/x-------|
|-14--14-14/16-x/x--x/x-}------14/16--10-10--17-17/19-------|
|---------------7/9-7/9--}----------------------------------|
Jake does B's until the second part of the outro when he does
|-------------------|
|-------------------|
|-------------------|
|-9-11-7-4-11-7-9---|
|-7--9-5-2--9-5-7---|
|-------------------|
Tap to rate this tab
# A B C D E F G H I J K L M N O P Q R S T U V W X Y Z