Song name
# A B C D E F G H I J K L M N O P Q R S T U V W X Y Z

Minus The Bear - When We Escape tab

Synth Intro (I like playing it an octave higher - 14th/12th fret)
|-------------|
|-------------|
|-2~-4-2-4-1~-|
|-4~-4-4-4-2~-| x2
|-------------|
|-------------|

(0:10)                                         |-Stop 2nd time around.
|----------------------------------------------------------|
|----------10h12---------10h12---------10h12---------10h12-|
|-------9h11----------9h11----------9h11----------9h11-----|
|----9h11----------9h11----------9h11----------9h11--------| x2
|-9h12----------9h12----------9h12----------9h12-----------|
|----------------------------------------------------------|

(0:20)
|----------------------9------12-|
|------10------12----------------|
|---11------11------11-----11----|
|--------------------------------| x2
|-9~-----(9)-----(9)----(9)------|
|--------------------------------|

(0:40)                                          |-Stop 2nd time around.
|----------------------------------------------------------|
|----------10h12---------10h12---------10h12---------10h12-|
|-------9h11----------9h11----------9h11----------9h11-----|
|----9h11----------9h11----------9h11----------9h11--------| x2
|-9h12----------9h12----------9h12----------9h12-----------|
|----------------------------------------------------------|

(0:50)
|----------------------9------12-|
|------10------12----------------|
|---11------11------11-----11----|
|--------------------------------| x2
|-9~-----(9)-----(9)----(9)------|
|--------------------------------|

(1:10)                                           |-Stop 2nd time around.
|----------------------------------------------------------|
|----------10h12---------10h12---------10h12---------10h12-|
|-------9h11----------9h11----------9h11----------9h11-----|
|----9h11----------9h11----------9h11----------9h11--------| x2
|-9h12----------9h12----------9h12----------9h12-----------|
|----------------------------------------------------------|




(1:20)
I think it's a sampled part, but I just play:
|----14-|
|---17--|
|--16---|
|-16----| x16
|-------|
|-------|

bend bend.
|---------|
|---------|
|-11^-11^-|
|---------|
|-9^^-9^^-|
|---------|

(1:30)
Chorus
|------------------------------------------|
|------------------------------------------|
|--------------------------6-6-6-6-9-9-9-9-|
|-4-7-6--------------4-7-6-----------------| x2
|-4-4-4--------------4-4-4-4-4-4-4-7-7-7-7-|
|-4-4-4--------------4-4-4-----------------|

bend bend.
|---------|
|---------|
|-11^-11^-|
|---------|
|-9^^-9^^-|
|---------|

(1:40)
|----------------------9------12-|
|------10------12----------------|
|---11------11------11-----11----|
|--------------------------------| x2
|-9~-----(9)-----(9)----(9)------|
|--------------------------------|
                                                   











(2:09)                                         beennnd.
|--------------------------------------------|----------|
|----------10h12---------10h12---------10h12-|----------|
|-------9h11----------9h11----------9h11-----|-9^(13)^9-|
|----9h11----------9h11----------9h11--------|----------|
|-9h12----------9h12----------9h12-----------|----------| x2
|--------------------------------------------|----------|
                                               
|----------------------------------------------------------|
|----------10h12---------10h12---------10h12---------10h12-|
|-------9h11----------9h11----------9h11----------9h11-----|
|----9h11----------9h11----------9h11----------9h11--------| x2
|-9h12----------9h12----------9h12----------9h12-----------|
|----------------------------------------------------------|

bend bend.
|---------|
|---------|
|-11^-11^-|
|---------|
|-9^^-9^^-|
|---------|

(2:38)
Chorus
|------------------------------------------|
|------------------------------------------|
|--------------------------6-6-6-6-9-9-9-9-|
|-4-7-6--------------4-7-6-----------------| x2
|-4-4-4--------------4-4-4-4-4-4-4-7-7-7-7-|
|-4-4-4--------------4-4-4-----------------|

(2:48)
|----------------------9------12-|
|------10------12----------------|
|---11------11------11-----11----|
|--------------------------------| x2
|-9~-----(9)-----(9)----(9)------|
|--------------------------------|

(2:58)
|----------------------------------------------------------|
|----------10h12---------10h12---------10h12---------10h12-|
|-------9h11----------9h11----------9h11----------9h11-----|
|----9h11----------9h11----------9h11----------9h11--------| x8 or so, with variation.
|-9h12----------9h12----------9h12----------9h12-----------|
|----------------------------------------------------------|






(3:23)
Outro
|----------10h12p10---------10h12p10-12~--------10h12p10---------10h12p10------------------|
|------------------------------------------------------------------------10-9--------------|
|-------9h11-------------9h11----------------9h11-------------9h11------------11-9---------|
|----9h11-------------9h11----------------9h11-------------9h11--------------------11-9----|
|-9h12-------------9h12----------------9h12-------------9h12----------------------------12-|
|------------------------------------------------------------------------------------------|

|----------10h12p10-12/14---------10h12p10---------10h12p10-------------10h12p10------------------|
|-------------------------------------------------------------------------------10-9--------------|
|-------9h11-------------------9h11-------------9h11--------14~------9h11------------11-9---------|
|----9h11-------------------9h11-------------9h11-----------------9h11--------------------11-9----|
|-9h12-------------------9h12-------------9h12-----------------9h12----------------------------12-|
|-------------------------------------------------------------------------------------------------|

(3:41)
|-------------------------------------------------------------------10h12-------|
|-------------------------------------------------------------------------10----|
|-------9------------------9--------11------------------11-------9h11--------11-|
|-----11----------9------11-------11------------9------11-----9h11--------------|
|-9h12-----9h11h12---9h12-----9h12------9h11h12----9h12----9h12-----------------|
|-------------------------------------------------------------------------------|
                                                                                     Fade Out.
|-----------------------------10h12p10-------------------------------------------------------|
|-------------------------------------10-9---------------------------------------------------|
|-------9--------11--------9---------------11-9----------------9--------9--------------------|
|-----11-------11--------11---------------------11-9---------11-------11---------9---------9-|
|-9h12-----9h12------9h12----------------------------12--9h12-----9h12----9h11h12---9h11h12--|
|--------------------------------------------------------------------------------------------|
Tap to rate this tab
 
# A B C D E F G H I J K L M N O P Q R S T U V W X Y Z