Song name
# A B C D E F G H I J K L M N O P Q R S T U V W X Y Z

Minus The Bear - Dog Park tab

Dave (1:25)

Hold this shape:

|-13-| 
|-11-| 
|-12-|
|----| 
|----| 
|----|

and tap this:

|-18p--17p-------| 
|------------18p-| 
|---17p---17p----| 
|----------------| 
|----------------| 
|----------------|
^ a few times, strumming original shape when needed.

and then this (1:38)

|-17-18----17-18-17-18p----------| 
|-------18-----------------------| 
|-17-17-17-17-17-17-17-----------| a few times
|--------------------------------| 
|--------------------------------| 
|--------------------------------|






End by strumming original shape, then:

|-------| 
|-------| 
|-7---7-|
|-7---7-| 
|-5---5-| 
|-5---5-|

Then:
"We want no one..." all strummed.

|---------------------------------------------------| 
|---------------------------------------------------| 
|-7-7-7-7-7-7-7-7--5-5-5-5-5-5-5-5--5-5-5-5-5-5-5-5-|
|-7-7-7-7-7-7-7-7--0-0-0-0-0-0-0-0--5-5-5-5-5-5-5-5-| x2
|-5-5-5-5-5-5-5-5--8-8-8-8-8-8-8-8--3-3-3-3-3-3-3-3-| 
|-5-5-5-5-5-5-5-5--8-8-8-8-8-8-8-8--3-3-3-3-3-3-3-3-|


  Not sure about this.
       V
|------5~------------------| 
|------5~------------------| 
|-7---------7---10-10/12---|
|-7---------7--------------| 
|-5-(5)-----5---8--8-/10---| 
|-5-(5)-----5--------------|

Tap to rate this tab
# A B C D E F G H I J K L M N O P Q R S T U V W X Y Z