Song name
# A B C D E F G H I J K L M N O P Q R S T U V W X Y Z

Minus - Everything tab

BAND : Minus
SONG : Everything
TABBER : Brian Whitebread (z3sk8r13@aol.com)

listen to the song to figure out when to use each riff

INTRO / VERSE
|------------------|
|------------------|
|------------------|
|-4-4-2-2-2-9-9-9--|
|-4-4-2-2-2-9-9-9--|
|-2-2-0-0-0-7-7-7--|

CHORUS
|-------2---------7---6--------------------------|
|-------2---------7---6---6----------------------|
|-------3---------7-7-6-6-6-4-4-4-4-9-9-9-6-6-6--|
|-4-4-4-4-4-4-4-4-7-7-6-6-6-4-4-4-4-9-9-9-6-6-6--|
|-4-4-4-4-4-4-4-4-5-5-4-4-4-2-2-2-2-7-7-7-4-4-4--|
|-2-2-2-2-2-2-2-2--------------------------------|

BRIDGE
|-----------------------------|
|-----------------------------|
|-5-5-5--5-5-5--9-9-9--9-9-9--|
|-5-5-5--5-5-5--9-9-9--9-9-9--|
|-3-3-3--3-3-3--7-7-7--7-7-7--|
|-----------------------------|

FILL
|-----------------------------------|
|-----------------------------------|
|-----------------9-9-9-9-9-9-9-11--|
|-4-4-4-4-4-4-4-4-9-9-9-9-9-9-9-11--|
|-4-4-4-4-4-4-4-4-7-7-7-7-7-7-7--9--|
|-2-2-2-2-2-2-2-2-------------------|
Tap to rate this tab
 
# A B C D E F G H I J K L M N O P Q R S T U V W X Y Z