Song name
# A B C D E F G H I J K L M N O P Q R S T U V W X Y Z

Minutemen - Futurism Restated tab

-------------------------------------------------------------------------------
Futurism Restated - The Minutemen
Bean Spill
-------------------------------------------------------------------------------
Tabbed by: axeslash
Email: holmzito@yahoo.com

Tuning: Standard tuning

e|-------------------------------------------------|
B|-------------------------------------------------|
G|-12-12-12-12-12-12-12-12-12-12-12-12-12-12-12-12-|
D|-12-12-12-12-12-12-12-12-12-12-12-12-12-12-12-12-|
A|-10-10-10-10-10-10-10-10-10-10-10-10-10-10-10-10-|
E|-------------------------------------------------| x5

e|----------------------------|  E|--------------------|
B|----------------------------|  B|-8-7----------------|
G|-12-12-12-12-12-12-12-12----|  G|-----8-7------------|
D|-12-12-12-12-12-12-12-12----|  D|---------8-7--------|
A|-10-10-10-10-10-10-10-10----|  A|-------------8-7----|
E|----------------------------|  E|--------------------| x2

e|-------------------------7-7------7-7----|
B|-4--4-4--0--2--2-2--0--7-7-7----7-7-7----|
G|-4--4-4--0--2--2-2--0--7--------7--------|
D|-4--4-4--0--2--2-2--0--7--------7--------|
A|-----------------------------------------|
E|-----------------------------------------|

e|-5--5-5--5--3--3-3--3--7--7-7-7----7--7-7-7-----|
B|-5--5-5--5--3--3-3--3--7--7-7-7----7--7-7-7-----|
G|-6--6-6--6--4--4-4--4--8--8-8-8----8--8-8-8-----|
D|-7--7-7--7--5--5-5--5--9--9-9-9----9--9-9-9-----|
A|-7--7-7--7--5--5-5--5--9-----------9------------|
E|-5----------3----------7-----------7------------| x3

e|-5--5-5--5--3--3-3--3--7--------|
B|-5--5-5--5--3--3-3--3--7--------|
G|-6--6-6--6--4--4-4--4--8--------|
D|-7--7-7--7--5--5-5--5--9--------|
A|-7--7-7--7--5--5-5--5--9--------|
E|-5----------3----------7--------|

e|---------------------------------------------------------------------|
B|---------------------------------------------------------------------|
G|-----9--9-------------9--9-------------9--9-------------9--9---------|
D|-7-9-------7-X----7-9-------7-X----7-9-------7-X----7-9-------7------|
A|----------------------------------------------------------------7----|
E|---------------5----------------5----------------5----------------5--|

e|-----------------------------------------------------------------------|
B|-----------------------------------------------------------------------|
G|-11----------9-9--11----------9-9--11----------9-9--11----------9-11/--|
D|----9\--9h11---------9\--9h11---------9\--9h11---------9\--9h11--------|
A|-----------------------------------------------------------------------|
E|-----------------------------------------------------------------------|


| /  slide up
| \  slide down
| h  hammer-on
| p  pull-off
| ~  vibrato
| +  harmonic
| x  Mute note
===============================================================================
Tap to rate this tab
# A B C D E F G H I J K L M N O P Q R S T U V W X Y Z