Song name
# A B C D E F G H I J K L M N O P Q R S T U V W X Y Z

Minutemen - History Lesson tab

Help us improve GuitareTab! Take a short survey!
-------------------------------------------------------------------------------
History Lesson - Minutemen
The Punch Line
-------------------------------------------------------------------------------
Tabbed by: axeslash
Email: holmzito@yahoo.com

Tuning: Standard

e|--------7--X---------7--X---------7--X---------7--X--|
B|--------7--X---------7--X---------7--X---------7--X--|
G|--------8--X---------8--X---------8--X---------8--X--|
D|-10--X--9--X--10--X--9--X--10--X--9--X--10--X--9--X--|
A|-10--X--9--X--10--X--9--X--10--X--9--X--10--X--9--X--|
E|--8--X--7--X---8--X--7--X---8--X--7--X---8--X--7--X--| x4

e|----------9--X-X----------9--X-X----------9--X-X----------9--X-X-|
B|----------9--X-X----------9--X-X----------9--X-X----------9--X-X-|
G|-11--X-X-10--X-X-11--X-X-10--X-X-11--X-X-10--X-X-11--X-X-10--X-X-|
D|-11--X-X-11--X-X-11--X-X-11--X-X-11--X-X-11--X-X-11--X-X-11--X-X-|
A|--9--X-X-11--X-X--9--X-X-11--X-X--9--X-X-11--X-X--9--X-X-11--X-X-|
E|----------9--X-X----------9--X-X----------9--X-X----------9--X-X-| x3

e|----------9--X-X----------9--X-X----------9--X-X----------9--|
B|----------9--X-X----------9--X-X----------9--X-X----------9--|
G|-11--X-X-10--X-X-11--X-X-10--X-X-11--X-X-10--X-X-11--X-X-10--|
D|-11--X-X-11--X-X-11--X-X-11--X-X-11--X-X-11--X-X-11--X-X-11--|
A|--9--X-X-11--X-X--9--X-X-11--X-X--9--X-X-11--X-X--9--X-X-11--|
E|----------9--X-X----------9--X-X----------9--X-X----------9--|

Nice little 4 second guitar break

e|--------9-----------9-----------9------------9----|
B|--------9-----------9-----------9------------9----|
G|-11----10----11----10----11----10----11--X--10----|
D|-11----11----11----11----11----11----11--X--11----|
A|--9----11-----9----11-----9----11-----9--X--11----|
E|--------9-----------9-----------9------------9----|


| /  slide up
| \  slide down
| h  hammer-on
| p  pull-off
| ~  vibrato
| +  harmonic
| x  Mute note
===============================================================================
Related for History Lesson tab