Song name
# A B C D E F G H I J K L M N O P Q R S T U V W X Y Z

Minutemen - My Heart And The Real World tab

-------------------------------------------------------------------------------
			     Minutemen - My Heart And The Real World
-------------------------------------------------------------------------------
Tabbed by: uhh_me?

Tuning: Standard

I am missing the solo, but hopefully I have provided you with enough information to get 
on track with this song.

Intro/Bridge/Outro
e|-4-4-5-5-7-7-4------|
B|-5-5-5-5-7-7-5------|
G|-4-4-6-6-8-8-4------|
D|--------------------|
A|--------------------|
E|--------------------|

Verse
e|------------------------------------|
B|------------------------------------|
G|---------------7-7-7-7-7------------|
D|-2-2-2-2-7-7-7-7-7-7-7-7-7-7-7-7----|
A|-2-2-2-2-7-7-7-7-5-5-5-5-7-7-7-7----|
E|-0-0-0-0-5-5-5-5---------5-5-5-5----|

Solo
I am having trouble figuring this out, but if D's other solos are anything to go by, it 
probably something based on the A pentatonic scale presumably starting at the 5th fret 
and winding up at the 12th fret position. It lasts 8 measures.


Song Order:
Intro x4
Verse x4
Intro x4
Solo
Verse x4
Intro x4

| /  slide up
| \  slide down
| h  hammer-on
| p  pull-off
| ~  vibrato
| +  harmonic
| x  Mute note
===============================================================================
Tap to rate this tab
 
# A B C D E F G H I J K L M N O P Q R S T U V W X Y Z