Song name
# A B C D E F G H I J K L M N O P Q R S T U V W X Y Z

Minutemen - Hittin The Bong tab

-------------------------------------------------------------------------------
			                         Hittin' the Bong - Minutemen
-------------------------------------------------------------------------------
Tabbed by: tiv0
Email: tjaixen@cox.net

Artist: Minutemen
Song: Hittin' the Bong
Album: 3-Way Tie (For Last)


Tuning: Half-step down (EbAbDbGbBbeb)

The tuning is kinda weird for this song, a half-step down sounds the closest.


eb|-------------------|
Bb|---------7---------|
Gb|---------------9~--|
Db|---------------9~--|
Ab|---5--7--------7~--|
Eb|------------7------|

eb|------------------|
Bb|------7--7h8--8~--|
Gb|--/9----------7~--|
Db|--------------8~--|
Ab|------------------|
Eb|------------------|

eb|--------------------|
Bb|--8/10--8--10--10~--|
Gb|---------------9~---|
Db|---------------10~--|
Ab|--------------------|
Eb|--------------------|

eb|---8--7--7h8--10--8--7--7---|
Bb|------------------------7---|
Gb|------------------------7---|
Db|----------------------------|
Ab|----------------------------|
Eb|----------------------------|

eb|---5--7--7/8--7--5--7--5---|
Bb|-----------------------5---|
Gb|-----------------------5---|
Db|---------------------------|
Ab|---------------------------|
Eb|---------------------------|

eb|---3--5--5/7--5--3--5--3~--|
Bb|-----------------------3~--|
Gb|-----------------------0~--|
Db|---------------------------|
Ab|---------------------------|
Eb|---------------------------|

eb|-------------------------------|
Bb|---------7---------------------|
Gb|------------------9-----9--9---|
Db|------------------9-----9--9---|
Ab|---5--7--------7-----7---------|
Eb|------------7------------------|

eb|------------------------------------|
Bb|------7--7h8--7--8--8--8-----8--8---|
Gb|--/9-------------------7-----7--7---|
Db|--------------------------8---------|
Ab|------------------------------------|
Eb|------------------------------------|

eb|--------------------------------------------|
Bb|---8/10--8--10--8--10--10--10------10--10---|
Gb|---------------------------9-------9---9----|
Db|-------------------------------10-----------|
Ab|--------------------------------------------|
Eb|--------------------------------------------|

eb|---10--8--7--8--10--8--7--7---|
Bb|--------------------------7---|
Gb|--------------------------7---|
Db|------------------------------|
Ab|------------------------------|
Eb|------------------------------|

eb|---5--7--7/8--7--5--7--5---|
Bb|-----------------------5---|
Gb|-----------------------5---|
Db|---------------------------|
Ab|---------------------------|
Eb|---------------------------|

eb|---3--5--5/7--5--3--5--3~--|
Bb|-----------------------3~--|
Gb|-----------------------0~--|
Db|---------------------------|
Ab|---------------------------|
Eb|---------------------------|


pretty simple.
enjoy

questions or comments, please email.

| /  slide up
| h  hammer-on
| ~  let ring
===============================================================================
Tap to rate this tab
 
# A B C D E F G H I J K L M N O P Q R S T U V W X Y Z