Song name
# A B C D E F G H I J K L M N O P Q R S T U V W X Y Z

Minutemen - I Felt Like A Gringo tab

this is my first tab ever! i hope its ok. i just thought it was a shame that
such a great song from such a legendary band hasnt been tabbed yet.
the solo might be a little off. feel free to make any corrections.

               I Felt Like a Gringo
                    (M. Watt)
               tabbed by steve hall
                clashrkr@gmail.com

E|-----------------------|-----------------------|
B|-----------------------|-----------------------| x2
G|--9~-7-----------------|--7--------------------|
D|--------9--7-----------|-----9--7--------------|
A|--------------9~-------|-----------9--5~-------|
E|-----------------------|-----------------------|


E|-------------13--13--13----|----------------------------|
B|---------10--10--10--10----|---------10--13--13--15-----| x2
G|--10h11--------------------|--10h11------12--12--14-----|
D|-(10)----------------------|-(10)-----------------------|
A|---------------------------|----------------------------|
E|---------------------------|----------------------------|


E|--10-
B|--10- repeat this chord
G|--11- really fast with lots of palm/finger muting
D|--10- and a fill at the end of each line
A|--12-
E|--10-

something like this...

E|--10xx-10xx-10xx-10xx-10xx-10----13-13-13-13-10--|
B|--10xx-10xx-10xx-10xx-10xx-10----10-10-10-10-10--|
G|--11xx-11xx-11xx-11xx-11xx-11----11-11-11-11-11--|
D|--10xx-10xx-10xx-10xx-10xx-10--------------------|
A|--12xx-12xx-12xx-12xx-12xx-12--------------------|
E|--10xx-10xx-10xx-10xx-10xx-10--------------------|


E|--10xx-10xx-10xx-10xx-10xx-10------------------|
B|--10xx-10xx-10xx-10xx-10xx-10----13-13-13-13---|
G|--11xx-11xx-11xx-11xx-11xx-11----12-12-12-12---|
D|--10xx-10xx-10xx-10xx-10xx-10----10-10-10-10---|
A|--12xx-12xx-12xx-12xx-12xx-12------------------|
E|--10xx-10xx-10xx-10xx-10xx-10------------------|

solo

E|------10--10--12--8--10------|------10--10--12--8--10-----|
B|----10-------------------10--|----10----------------------|
G|--11-------------------------|--11------------------------|
D|-----------------------------|----------------------------|
A|-----------------------------|----------------------------|
E|-----------------------------|----------------------------|

E|------10--10--12--8--10------|------10--10--12--8--10-----|
B|----10-------------------10--|----10----------------------|
G|--11-------------------------|--11------------------------|
D|-----------------------------|----------------------------|
A|-----------------------------|----------------------------|
E|-----------------------------|----------------------------|

E|----------------------------------|------------------------------------------------|
B|--10------------------------------|-----------------10--10------10-----------------|
G|------13--12--10~-------10--------|-----------------10--10------10------10--12b14--|
D|-------------------12-10---12-----|-----12--10--------------12------12-------------|
A|----------------------------------|-------------12---------------------------------|
E|----------------------------------|------------------------------------------------|

E|--------------------------------------------------|
B|--------------------------------------------------|
G|--10------10--9h10p9--7--9--9b10--9--7-----9--7~--|
D|------12--------------------------------9---------|
A|--------------------------------------------------|
E|--------------------------------------------------|

E|-----------------------|-----------------------|
B|-----------------------|-----------------------| x2
G|--9~-7-----------------|--7--------------------|
D|--------9--7-----------|-----9--7--------------|
A|--------------9~-------|-----------9--5~-------|
E|-----------------------|-----------------------|

| /  slide up
| \  slide down
| h  hammer-on
| p  pull-off
| ~  vibrato
| +  harmonic
| x  Mute note
===============================================================================
Tap to rate this tab
 
# A B C D E F G H I J K L M N O P Q R S T U V W X Y Z